Oops, an error
Loading. Please wait.

Mother Maria Tab

version 1
version 1

Intro

Interactive

7,597 views 1 this week
6 commentsread comments
1 2 3 4 5
please rate
add to favorites
launch autoscroll
font size
0
reset
how to read this tab
guitar tuner
Autoscroll
slow
fast
+/-
esc
set tempo
stop
Help us to improve Ultimate-Guitar.com Take our survey!
×
Author
Difficulty
Tuning
intermediate
D# G# C# F# A# D#
-----------------------------------------------------------------------------
                             Mother Maria - Slash & Beth Hart
-----------------------------------------------------------------------------
Tabbed by: Nightrain
Email: m1n1m3@hotmail.co.uk

Tuning: Half-Step Down

Just the intro for now, I'll update as I work it out.

eb|--------------------------------------------------|
Bb|--7-6-4-------------------------------------------|
Gb|--------------------------------------------------|
Db|--------1-3-4/9-6-8--4----------------------------|
Ab|-----------------------6-----6-8-8h9-9p8--6-8--4/6|
Eb|-------------------------6-6----------------------|

eb|--------------------------------------------------|
Bb|------7-10-14-13-11-10----11----------------------|
Gb|----8------------------10-------------------------|
Db|--8-----------------------------------------------|
Ab|--------------------------------------------------|
Eb|--------------------------------------------------|

eb|--------------------------------------------------|
Bb|--------------------14-13-11-11h13----------------|
Gb|--10-------------10-------------------------------|
Db|-----11-------11----------------------------------|
Ab|--------13-13-------------------------------------|
Eb|--------------------------------------------------|

************************************

| /   slide up
| \   slide down
| h   hammer-on
| p   pull-off
| ~   vibrato
| +   harmonic
| x   Mute note
| b   Bend
| pb  Pre-bend
| br  Bend release
| pbr Pre-bend release
| brb Bend release bend

************************************
Suggest correction
Give kudos to tab author, rate the tab!
1 2 3 4 5
comments
print report bad tab
6 comments total. Showing first comments.
0 reply
iPhantom 10 wrote on February 25 2010, 05:08 pm

It's not 1-3-4/9-6-8

It's 1-3-4/5-9-6-8

0 reply
iPhantom 10 wrote on February 25 2010, 05:12 pm

Actually it's

eb|--------------------------------------------------|
Bb|--7-6-4-------------------------------------------|
Gb|--------------------------------------------------|
Db|--------1-3-4/8-9-6-8--4--------------------------|
Ab|-----------------------6-----6-8-8h9-9p8--6-8--4/6|
Eb|-------------------------6-6----------------------|

I was wrong before as well.

0 reply
iPhantom 10 wrote on February 25 2010, 05:15 pm

Again wrong lol... why can't I edit my posts

eb|--------------------------------------------------|
Bb|--7-6-4-------------------------------------------|
Gb|--------------------------------------------------|
Db|--------1-3-4/8-10-6-8--4-------------------------|
Ab|-----------------------6-----6-8-8h9-9p8--6-8--4/6|
Eb|-------------------------6-6----------------------|

Yep that sounds right

guest
You may want to rate the tab now too:
select rating
Please do not post tabs as comments. Select "correction" instead!