Oops, an error
Loading. Please wait.

No More Heroes Tab

version 1
version 1

Intro

Interactive

32,692 views 114 this week
2 commentsread comments
1 2 3 4 5
accurate
x 15
add to favorites
launch autoscroll
font size
0
reset
how to read this tab
guitar tuner
Tab Pro tools
  • play this tab
  • loop segment
  • change instrument
  • show fretboard
  • metronome
Autoscroll
slow
fast
+/-
esc
set tempo
stop
Contributor
Difficulty
novice
----------------------------------------------------------------------------
      No More Heroes - Slash Featuring Myles Kennedy and the Conspirators
----------------------------------------------------------------------------
Tabbed by: Fahad Khan
E-mail: fhad_khan@hotmail.com

Tuning: EADGBe


"No More Heroes" is the fifth song off of Slash's second album, Apocalyptic Love,
released on May 22, 2012. The album only came out a few days ago and I've only heard 
this song
a couple of times or so since then, and this was all I could figure out so far.
This is my first tab too.

Intro 0:04

e|------------------------------------------------------------|
B|------------------------------------------------------------|
G|-/12~~--11~--/13~-15--13b15--12~~--11~~--10~~--12p10-9~~----|
D|------------------------------------------------------------|
A|------------------------------------------------------------|
E|------------------------------------------------------------|


Main Riff

e|-----------------------------------|
B|-----------------12-------------12-|
G|----------13-----------13----------|
D|--------------14-----------14------|
A|-----------------------------------|
E|--\12--12--------------------------|

e|---------------------------------|
B|--------------12-------------12--|
G|------12-------------12----------|
D|----------12-------------12------|
A|---------------------------------|
E|--10-----------------------------|

e|--------------------------------|
B|-------------10-------------10--|
G|-----11-------------11----------|
D|---------12-------------12------|
A|--------------------------------|
E|--9-----------------------------|

e|--------------------------------|
B|--------------14--14b15r14--12--|
G|------14------------------------|
D|----------14--------------------|
A|--12----------------------------|
E|--------------------------------|  x2

At the end, the second guitarist plays this:

E|---|
B|---|
G|---|
D|-9-|
A|-9-|
E|---|

Verse 0:35

2nd Guitarist

e|---------------------|
B|--9----8----7----5---|
G|--9----7----7----6---|
D|--9----9----7----7---|
A|---------------------|
E|---------------------| x2


For the second part of the verse ("Now I know, now I realize.." 0:52), the 1st guitarist 
plays the main riff twice while the 2nd guitarist plays this:


e|------------------------------------|
B|----------------9----------------8--|
G|--9-9-9-9-9-9-9-9--7-7-7-7-7-7-7-7--|
D|--9-9-9-9-9-9-9-9--9-9-9-9-9-9-9-9--|
A|------------------------------------|
E|------------------------------------|
    . . . . . . .    . . . . . . .

e|------------------------------------|
B|----------------7------------8-8-8--|
G|--7-7-7-7-7-7-7-7--6-6-6-6-6-6-6-6--|
D|--7-7-7-7-7-7-7-7--7-7-7-7-7-7-7-7--|
A|------------------------------------|
E|------------------------------------|  x2
    . . . . . . .    . . . . .

At the end of the verse the first guitarist plays this:

e|----------------------------------|
B|-----12---------------------------|
G|--14----12------------------------|
D|-----------12-------12-------12---|
A|--------------12h14----12h14------|
E|----------------------------------|


Chorus 1:10

E|-----------------------------------------------------------|
B|-----------------------------------------------------------|
G|-----------------------------------------------------------|
D|-9-9-9\--9-----9----------5-5--------7-7-------------------|
A|-7-7-7\--7--9--7--9-10--5-3-3-5-5--7-5-5-7-7------5------5-|
E|------------7-----7-8---3-----3-3--5-----5-5--5h7----5h7---|


End of Chorus 1:27

e|--------------------------------|
B|--------------------------------|
G|-/12~~--11~--/13~-15--13/15~~~--|
D|--------------------------------|
A|--------------------------------|
E|--------------------------------|


That's all for right now, will tab more later
comments
print report bad tab
2 comments total.
0 reply
062001 wrote on October 6 2013, 03:52 pm

cool tab man! i also just heard the song

0 reply
squiffy123 wrote on August 16 2014, 02:37 pm

awesome, great help, sounds just right :)

I want to post or [tab]
guest
You may want to rate the tab now too:
select rating
Please do not post tabs as comments. Select "correction" instead!