Oops, an error
Loading. Please wait.

Not For Me tab

version 4
version 4

Whole song

Interactive

by Slash
4,097 views 6 this week
no commentswrite comment
1 2 3 4 5
x 5
add to favorites
×
Save as Personal and add changes to this tab that will be seen only by you. Learn more ›
×
You can save this tab as Personal to edit and correct it or add notes. All changes will be seen only by you. Learn more »
launch autoscroll
font size
0
reset
how to read this tab
guitar tuner
backing track
0:00
0:00
edit
Autoscroll
slow
fast
+/-
esc
set tempo
stop
Title: Not For Me
Artist: Slash
Album: Apocalyptic Love
Tempo = 75


Legend
L - tied note
x - dead note
h - hammer on/pull off
b - bend
s - slide
~ - vibrato
g - ghost note
> - accentuated note
t - trill
M - palm mute
. - staccato
P - popping (bass)
S - slapping (bass)
+ - tapping
W - wide vibrato
< - fade in
w - whammy bar
= - tremolo picking
v - brush up
^ - brush down
V - pick stroke up
n - pick stroke down


INTRO

D#|----------------------------|-----5----|----------------------------|
A#|--7----------7b8rb7---------|--6--8b10-|--5----------5b6rb5---------|
F#|--9b11--------------7-------|----------|--7b9---------------5-------|
C#|-----------------------7----|----------|-----------------------5----|
G#|----------------------------|----------|----------------------------|
D#|----------------------------|----------|----------------------------|


-----3----|----------------------------|-----1----|--1---3----|
--4--6b8--|--3----------3b4rb3---------|--2--4b6--|--4b6-6b8--|
----------|--5b7---------------3-------|----------|-----------|
----------|-----------------------3----|----------|-----------|
----------|----------------------------|----------|-----------|
----------|----------------------------|----------|-----------|


VERSE
  ^
----------------------------------------------------|
----------------------------------------------------|
----------------------------------------------------|
--4-----------------------------4--4--5h-4----------|
--5-----------------------------5--5--5-------------|
--5-----------------------------5--5--5-------------|


----------------------------------------------------|
----------------------------------------------------|
--2-----------------------------------2--0----------|
--3--------------------------------3--3--3----------|
--3--------------------------------3----------------|
----------------------------------------------------|


----------------------------------------------------|
----------------------------------------------------|
--0-------------------------------------------------|
--2-----------------------------------3h-2-----0----|
--3-----------------------------3--3--------3-------|
----------------------------------------------------|


----------------------------------------------------|
----------------------------------------------------|
----------------------------------------------------|
--1--------1--------0-------------------------------|
--1--------1--------1-----------1-----1h-0----------|
--------------------------------------------3-------|



CHORUS

--2-----------------------------2--2--3--2----------|
--3-----------------------------3--3--3--3----------|
--2-----------------------------2--2--2--2----------|
--0-------------------------------------------------|
----------------------------------------------------|
----------------------------------------------------|


----------------------------------------------------|
----------------------------------------------------|
--2-----------------------2h-0----------------------|
--3--------------------------------3----------------|
--3--------------------3-----------------3----------|
----------------------------------------------------|


----------------------------------------------------|
----------------------------------------------------|
--0-------------------------------------------------|
--0h-2--------------------3h-2--------0h-2--2--0----|
--3-----------------------3-----------3-------------|
----------------------------------------------------|


----------------------------------------------------|
----------------------------------------------------|
--0--------0--------3--------3----------------------|
--1-----1-----1-----3-----3-------------------------|
--1-----------1-----1-----------1-----1h-0----------|
--------------------------------------------3-------|



BRIGDE + SOLO

||---------------------------------------------------|
||---------------------------------------------------|
||-------------------------0h-2--------2h-0----------|
||-3-----------3-----------3-----------3-------------|
||-3-----------3--------3--3-----------3-------------|
||-1-----------1--------1----------------------------|


----------------------------------------------------|
----------------------------------------------------|
--0-----------0-----------0--------------0----------|
--2-----------2-----------2-----2--2--3-----3--2----|
--3-----------3-----------3-----3--3--3-------------|
----------------------------------------------------|


---------------------------------------------------||-------|
---------------------------------------------------||-------|
---------------------------------------------------||--3----|
--0-----------0-----------0L-0---------------------||--3----|
--2-----------2-----------2L-2--2--2--3h-2-----0---||--1----|
--3-----------3-----------3L-3--3--3--3L-3--3------||-------|


----------------------------|-----5----|----------------------------|-----3----|
--7-----------7L-7b---------|--6--8b---|--5-----------5L-5b---------|--4--6b---|
--9b----------------7-------|----------|--7b----------------5-------|----------|
-----------------------7----|----------|-----------------------5----|----------|
----------------------------|----------|----------------------------|----------|
----------------------------|----------|----------------------------|----------|


----------------------------|-----1----|
--3-----------3L-3b---------|--2--4b---|
--5b----------------3-------|----------|
-----------------------3----|----------|
----------------------------|----------|
----------------------------|----------|


--1-----------1--------3-----3---3-----3--------------|
--4b6---------4b6------6b8---6b8-6b8---6b8------------|
------------------------------------------------------|
------------------------------------------------------|
------------------------------------------------------|
------------------------------------------------------|


--------------10----------------------------------------------10-----------------------------|
--------10----------10----13----------------------------------------13-----------------------|
--12b14-------------------------------------------------------------------12b14rb12-10-12----|
------------------------------------------------------------------------------------------12-|
---------------------------------------------------------------------------------------------|
---------------------------------------------------------------------------------------------|


|----------------------------------------------------|
|--------------------13----------10-13---------------|
|--10~---------------12b14------------14rb12--10-----|
|--------------12--------------------------------12--|
|----------------------------------------------------|
|----------------------------------------------------|


--------------------------12b13--12--------------------|
-----------------------------------13-------11-13------|
--12b14--10-12------10---------------------------------|
-----------------------12------------------------------|
-------------------------------------------------------|
-------------------------------------------------------|


--------------------------------------------------------10----------------------|
--11----------------------------------------------------13b15-------------------|
--13b15-------------------------------------------------------------------------|
--------------------------------------------------------------------------------|
--------------------------------------------------------------------------------|
--------------------------------------------------------------------------------|


---13-------------------------10------------------------------------|
------------13pb15------------------13----10------------------------|
------------------------------------------------14rb12---10---------|
--------------------------------------------------------------------|
--------------------------------------------------------------------|
--------------------------------------------------------------------|


--------------------13----15b17-------15-14---------|
--13b15----------------15-------------------15------|
-----------------------------------------------14---|
----------------------------------------------------|
----------------------------------------------------|
----------------------------------------------------|


--13----------------15b17-------------15b17-13-15---|
--------------15------------------------------------|
----------------------------------------------------|
----------------------------------------------------|
----------------------------------------------------|
----------------------------------------------------|


--12b12----12-------12b13----12---------------------|
--------------13----------------13----------11-13---|
----------------------------------------------------|
----------------------------------------------------|
----------------------------------------------------|
----------------------------------------------------|


--11----------------10-------13-------13------------|--13---|----|
--14b16-------------13b15-------13b15----13b15------|--13b15|----|
----------------------------------------------------|-------|----|
----------------------------------------------------|-------|----|
----------------------------------------------------|-------|----|
----------------------------------------------------|-------|----|


--------------------------------------------------------------------------------|
--------------------------------------------------------------------------------|
--------------------------------------------------------------------------------|
--------------------------------------------------------------------------------|
--------------------------------------------------------------------------------|
--------------------------------------------------------------------------------|


OUTRO SOLO


------------------------------------------------------10------------|
------------------------------------------------------------10------|
--------------------------------------------------------------------|
--------------------------------------------------------------------|
--------------------------------------------------------------------|
--------------------------------------------------------------------|


--------------------13b14-------------13b15-10------|
--13b15----------------------------------------10---|
----------------------------------------------------|
----------------------------------------------------|
----------------------------------------------------|
----------------------------------------------------|


--13-------15b17------12b13-|
----------------------------|
----------------------------|
----------------------------|
----------------------------|
----------------------------|


--12----------------13b15-------------------11-13---|
--------------13------------------------------------|
----------------------------------------------------|
----------------------------------------------------|
----------------------------------------------------|
----------------------------------------------------|


--10----------------10----------------10----------------------------------------|
--13b15-------------13pb15------------13pb15------------------------------------|
--------------------------------------------------------------12b14-------------|
--------------------------------------------------------------------------------|
--------------------------------------------------------------------------------|
--------------------------------------------------------------------------------|


--------------------|--------------------------10----10----10----10------|
--------------------|--------------------10-10-13b15-13b15-13b15-13------|
------10------------|--------------------12b-----------------------------|
------------12-10---|--12------------------------------------------------|
--------------------|----------------------------------------------------|
--------------------|----------------------------------------------------|


--------------------------10----10-13-10------------|
--------------------10-10-13b15-13b15-13~-----------|
--------------------12b-----------------------------|
----------------------------------------------------|
----------------------------------------------------|
----------------------------------------------------|


--------------------12----12b13-------13-12-10------|
-----------------------------------------------13---|
----------------------------------------------------|
----------------------------------------------------|
----------------------------------------------------|
----------------------------------------------------|


--10-------10-------10------------------------------|
--13b15----13b15----13b15-------------13b15-10------|
-----------------------------------------------12---|
----------------------------------------------------|
----------------------------------------------------|
----------------------------------------------------|


--13b15----13b15----13b15-------------------13------|
--------------------------------------13-15----15---|
----------------------------------------------------|
----------------------------------------------------|
----------------------------------------------------|
----------------------------------------------------|


--18~------18~------18~------------------18b12------|
----------------------------------------------------|
----------------------------------------------------|
----------------------------------------------------|
----------------------------------------------------|
----------------------------------------------------|


--20b22----------------17-15-14---------|----||
----------------------------------------|----||
----------------------------------------|----||
----------------------------------------|----||
----------------------------------------|----||
----------------------------------------|----||

            
            
Suggest correction
Creating personal tab
Creating personal tab
You can edit any tab online and save it as your Personal.

You can edit, replace or remove any tab part or add personal notes – all changes will be seen only by you.

Personal tabs can be accessed anytime from any device, even offline.
Learn more »
comments
print report bad tab
guest
You may want to rate the tab now too:
select rating
Wanna post a correction for this tab? Suggest correction