Oops, an error
Loading. Please wait.

Nothing To Say Tab

version 2
version 2

Whole song

Interactive

16,152 views 1 this week
12 commentsread comments
1 2 3 4 5
accurate
x 10
add to favorites
launch autoscroll
font size
0
reset
how to read this tab
guitar tuner
Tab Pro tools
  • play this tab
  • loop segment
  • change instrument
  • show fretboard
  • metronome
×
Best way to learn
"Nothing To Say"
Autoscroll
slow
fast
+/-
esc
set tempo
stop
Contributor
Difficulty
Tuning
intermediate
D A D G B E
----------------------------------------------------------------------------
                               -Nothing To Say-
----------------------------------------------------------------------------

Artist:Slash Featuring M. Shadows From Avenged Sevenfold
Album:Slash's Solo CD
Song:Nothing To Say

I don't have everything tabbed yet but this is most of the song and it all
 sounds good to me so good luck and thanks for all comments/ratings.


[UPDATE] - April 2nd - I fixed the tuning and added the chorus.




Tuning- Drop D DADGBE
E-1st string
B-2nd string
G-3rd string
D-4th string
A-5th string
D-6th string

{KEY}
*  Palm Mute
x  Mute
~  Let Ring
/  Slide Up Guitar (with fingers)
\  Slide Down Guitar (with fingers)
*^  Pinch Harmonic
h  Hammer-On
p  Pull-Off
T  Trill
b  Bend




(Intro)
Lead guitar #1...
E|-------------------------------------------------------------------------|
B|-------------------------------------------------------------------------|
G|-------------------------------------------------------------------------|
D|-------------------------------------------------------------------------|
A|--------0-4-3~--3-4-2-0--------------------------------------------------|
D|-4~-3-4-----------------4~-----------------------------------------------|
(Played X4)


Rythym Guitar...
E|-------------------------------------------------------------------------|
B|-------------------------------------------------------------------------|
G|------------5~-----------------------------------------------------------|
D|-4~---------5~----------4~-----------------------------------------------|
A|-4~---------3~----------4~-----------------------------------------------|
D|-4~---------------------4~-----------------------------------------------|
(Played X4)


Lead Guitar #2... (Harmony to Guitar #1)
E|-------------------------------------------------------------------------|
B|-------------------------------------------------------------------------|
G|-------------------------------------------------------------------------|
D|---------2-6-5~--5-6-4-2-------------------------------------------------|
A|-4~--3-4-----------------4~----------------------------------------------|
D|-------------------------------------------------------------------------|
(Played X3 - Played after 1st time trough guitar 1)


Lead Guitar #3...
E|-9---9---9---9-----8---8---8---8-----9---9---9---9-----------------------|
B|-12b-12b-12b-12b---11b-11b-11b-11b---12b-12b-12b-12b---------------------|
G|--------------------------------------------------------5~---------------|
D|--------------------------------------------------------5~---------------|
A|--------------------------------------------------------3~---------------|
D|-------------------------------------------------------------------------|


Lead Guitar #1...
E|-------------------------------------------------------------------------|
B|-------------------------------------------------------------------------|
G|-------------------------------------------------------------------------|
D|-------------------------------------------------------------------------|
A|-----5-----8-----5-----8-----4h5-------5-----8-----5-----8-----4h5-------|
D|-6-7---6-7---6-7---6-7---6-7-------6-7---6-7---6-7---6-7---6-7-----------|
   * *   * *   * *   * *   * *       * *   * *   * *   * *   * *
(Played X4)


Rythym Guitar...
E|--------------------------13~--------------------------------------------|
B|--------------------------16b~-------------------------------------------|
G|-------------------------------------------------------------------------|
D|-2---2---2---2---2---2---------------------------------------------------|
A|-2---2---2---2---2---2---------------------------------------------------|
D|-2---2---2---2---2---2---------------------------------------------------|

Lead Guitar #1...
E|-------------------------------------------------------------------------|
B|-------------------------------------------------------------------------|
G|-------------------------------------------------------------------------|
D|-------------------------------------------------------------------------|
A|-----5-----8-----5-----8-----4h5-------5-----8-----5-----8-----4h5-------|
D|-6-7---6-7---6-7---6-7---6-7-------6-7---6-7---6-7---6-7---6-7-----------|
   * *   * *   * *   * *   * *       * *   * *   * *   * *   * *
(Played X4)


(Verse)
Lead Guitar #1...
E|-------------------------------------------------------------------------|
B|-------------------------------------------------------------------------|
G|---------------------------------5~-------3~-----------------------------|
D|---------------------------------5~-------3~-----------------------------|
A|---------------------------------3~-------1~-----------------------------|
D|-0-0-0-0-0-0-0-0-(Realy-fast)--------------------------------------------|


(Chorus)
Lead Guitar #1...
E|-------------------------------------------------------------------------|
B|-------------------------------------------------------------------------|
G|-7-7----7-7----7-7----9---9--10------------------------------------------|
D|-x-x----x-x----x-x----x---x--x-------------------------------------------|
A|-5-5----5-5----5-5----7---7--8-------------------------------------------|
D|-------------------------------------------------------------------------|
(Played X4)


Lead Guitar #1...
E|-------------------------------------------------------------------------|
B|-------------------------------------------------------------------------|
G|-3~-----5~---------------------------------------------------------------|
D|-3~-----5~---------------------------------------------------------------|
A|-1~-----3~--------5-----5-----5-----5-----5~-----------------------------|
D|--------------6-7---6-7---6-7---6-7---6-7--------------------------------|


         I'm working on the rest, Good Luck




comments
print report bad tab
12 comments total. Showing first comments. show 1 bad comment
0 reply
jake2121 wrote on April 2 2010, 03:59 pm

Lol I feel pretty stupid. I experimented and I think the song is played in Drop D. Lol i'll have to change it up to match drop D.

-2 reply
SlashWannabe1 wrote on April 3 2010, 04:45 am

this is NOT a DROP D song. Its full Step Down D!!!!!

I want to post or [tab]
guest
You may want to rate the tab now too:
select rating
Please do not post tabs as comments. Select "correction" instead!