Oops, an error
Loading. Please wait.

Nothing To Say Tab

version 4
version 4

Whole song

Interactive

2,372 views 1 this week
no commentswrite comment
1 2 3 4 5
please rate
add to favorites
launch autoscroll
font size
0
reset
how to read this tab
guitar tuner
Tab Pro tools
  • play this tab
  • loop segment
  • change instrument
  • show fretboard
  • metronome
×
Best way to learn
"Nothing To Say"
Autoscroll
slow
fast
+/-
esc
set tempo
stop
Contributor
Difficulty
intermediate
Intro
E:--------------------------------------|
B:--------------------------------------|
G:--------------------------------------|
D:--------------------------------------|
A:------------0-4--3vb--3-4-2-0---------|
E:2vb---1-2---------------------2vb-----|


E:--------------------------------------|
B:--------------------------------------|
G:--------------------------------------|
D:--------------------------------------|
A:----5-----7-----5------7---4/5--------|
E:4-5--4-5---4-5---4-5----4-------------|

Verse:
E:-----------------------------------------|
B:-----------------------------------------|
G:------------------------------------5--3-|
D:------------------------------------5--3-|
A:------------------------------------3--1-|
E:00000000000000(You know when to stop)

Pre-Chorus
E:--------------------------------------------|
B:--------------------------------------------|
G:7-7--x--7-7--x--7-7--x--9--7\6--------------|
D: x-x--x--x-x---x--x-x---x--x---x\x----------|
A:5-5--x--5-5--x--5-5--x--7--5\4--------------|
E:--------------------------------------------|

Chorus:
E:-------------------------------------------------|
B:-------------------------------------------------|
G:3--5---------------------------------------------|
D:3--5---------------------------------------------|
A:1--3-------5------7------5----7---4/5------------|
E:--------4-5---4-5---4-5----4-5--4----------------|



That's what I have. It's my first tab so I hope it doesn't show messed up.
I forgot! Palm mute the 0's in the verse and the 4-5's in the chorus.

Suggestions, Death Treats, Questions, If it shows messed up(I'll make another tab)or 
anything e-mail me: jean6781@live.com
Thanks
comments
We did not receive enough feedback on this tab! Please rate:
print report bad tab
1 2 3 4 5
I want to post or [tab]
guest
You may want to rate the tab now too:
select rating
Please do not post tabs as comments. Select "correction" instead!