Oops, an error
Loading. Please wait.

Nothing To Say tab

version 6
version 6

Whole song

Interactive

by Slash
160 views 1 this week
no commentswrite comment
1 2 3 4 5
2 more votes to show rating
add to favorites
×
Save as Personal and add changes to this tab that will be seen only by you. Learn more ›
×
You can save this tab as Personal to edit and correct it or add notes. All changes will be seen only by you. Learn more »
launch autoscroll
font size
0
reset
how to read this tab
guitar tuner
backing track
0:00
0:00
edit
Autoscroll
slow
fast
+/-
esc
set tempo
stop
About this tab version
This version contains the various guitar breaks in the verses and choruses as well as the full lead solo and the post-solo section. Was this info helpful? Yes No
Slash - Nothing to Say feat. M. Shadows
Album: Slash
Tabbed by: moist_seagull


[Intro]

D|---------------------------------------------------------------------------------|
A|---------------------------------------------------------------------------------|
F|---------------------------------------------------------------------------------|
C|----------------------------------------------------------6--5------5--6--4\2----|
G|-----------------2--6--5------5--6--4--2---------------2-------------------------|
D|----4------3--4---------------------------4------3--4----------------------------|

D|----10-----10-----10-----10-----9------9------9------9------10-----10-----10-----12-------|
A|----13b15--13b15--13b15--13b15--12b14--12b14--12b14--12b14--13b15--13b15--13b15--15b17----|
F|------------------------------------------------------------------------------------------|
C|------------------------------------------------------------------------------------------|
G|------------------------------------------------------------------------------------------|
D|------------------------------------------------------------------------------------------|

D|-------------------------------------------|
A|----------------------------------20-------|
F|----------------------------------19b21----|
C|----2----2----2----2----2----2-------------|
G|----2----2----2----2----2----2-------------|
D|----0----0----0----0----0----0-------------|

D|-------------------------------------------------------|
A|-------------------------------------------------------|
F|-------------------------------------------------------|
C|-------------------------------------------------------| x2
G|-----------7--------10--------7--------9--------6h7----| 
D|----0--10-----0--9------0--8-----0--7-----0--7---------|

D|-------------------------------------|
A|-------------------------------------|
F|------------------------------4b5----|
C|-------------------------------------|
G|-----------7--------10---------------|
D|----0--10-----0--9------0--0---------|

D|-------------------------------------------------------------|
A|----/5-5-0h3p0---0h3p0---0-----------------------------------|
F|---------------4-------4---4p3p0-3p2p0-2p0-------------------|
C|-------------------------------------------2p0---------/2----|
G|-----------------------------------------------2p0-----------|
D|---------------------------------------------------3p0-------|


[Verse 1]

D|-----------------------|
A|-----------------------|
F|-----------------------|
C|-----------------------|
G|-----------------------| x4
D|----0-0-0-0-0-0-0-0----|
   PM|---------------|

D|----------------------------------|
A|----------------------------------|
F|----------------------------------|
C|----7------------5------5----4----|
G|----5------------3------3----2----|
D|----------------------------------|

D|-----------------------|
A|-----------------------|
F|-----------------------|
C|-----------------------|
G|-----------------------| x8
D|----0-0-0-0-0-0-0-0----|
   PM|---------------|

D|----------------------------------|
A|----------------------------------|
F|----------------------------------|
C|----7------------5------5----4----|
G|----5------------3------3----2----|
D|----------------------------------|

D|-----------------------|
A|-----------------------|
F|-----------------------|
C|-----------------------|
G|-----------------------| x8
D|----0-0-0-0-0-0-0-0----|
   PM|---------------|

D|----------------------------------|
A|----------------------------------|
F|----------------------------------|
C|----7------------5------5----4----|
G|----5------------3------3----2----|
D|----------------------------------|

D|-----------------------|
A|-----------------------|
F|-----------------------|
C|-----------------------|
G|-----------------------| x8
D|----0-0-0-0-0-0-0-0----|
   PM|---------------|

D|----------------------------------|
A|----------------------------------|
F|----------------------------------|
C|----7------------5----------------|
G|----5------------3------5----7----|
D|------------------------3----5----|

D|---------------------------------------------------------------------------|
A|---------------------------------------------------------------------------|
F|----9--9----9--9----9--9----11----8/9--9--9----9--9----9--9----11----8/9---|
C|---------------------------------------------------------------------------|
G|----7--7----7--7----7--7----9-----6/7--7--7----7--7----7--7----9-----6/7---|
D|---------------------------------------------------------------------------|

D|------------------------------------------------------10------------------------------------|
A|-----------------------------------------------10b12------10b12r10p8-10-8-7b8r7-------------|
F|----12--12----12--12----12--12----14----11/12-----------------------------------9--7--/9----|
C|--------------------------------------------------------------------------------------------|
G|----10--10----10--10----10--10----12-----9/10-----------------------------------------------|
D|--------------------------------------------------------------------------------------------|


[Chorus 1]

D|----------------------------------------------------------|
A|----------------------------------------------------------|
F|----5--------7--------------------------------------------|
C|----5--------7--------------------------------------------| x3
G|----3--------5-------------7-----7-----7-----7-----6h7----| 
D|----3--------5--------0-10---0-9---0-8---0-7---0-7--------|

D|---------------------------------------------------------------------------|
A|---------------------------------------------------------------------------|
F|---------------------------------------------------------------------------|
C|----5----------------7----------------7----------------9-------------------|
G|----3----------------4----------------5----------------6-------------------|
D|---------------------------------------------------------------------------|

D|---------------------------------------------------------------------------|
A|---------------------------------------------------------------------------|
F|--------------------------------------------------------5h8---5-8h9/12-----|
C|--------------------------5-----5-7-9-5h7---5-7-9-5-7-9-----9--------------|
G|--------6-7---6-7-9-6-7-9---7-9-----------9--------------------------------|
D|----7-8-----8--------------------------------------------------------------|

D|----------------11h12p11p8-11-8-11p8\7----8-7h8p7----7------7-------------------------|
A|----------11-12------------------------10---------10---8h10---10p8p7---8p7------------|
F|----11-12------------------------------------------------------------9-----9p8-9~~----|
C|--------------------------------------------------------------------------------------|
G|--------------------------------------------------------------------------------------|
D|--------------------------------------------------------------------------------------|


[Verse 2]

D|-----------------------|
A|-----------------------|
F|-----------------------|
C|-----------------------|
G|-----------------------| x4
D|----0-0-0-0-0-0-0-0----|
   PM|---------------|

D|----------------------------------|
A|----------------------------------|
F|----------------------------------|
C|----7------------5------5----4----|
G|----5------------3------3----2----|
D|----------------------------------|

D|-----------------------|
A|-----------------------|
F|-----------------------|
C|-----------------------|
G|-----------------------| x8
D|----0-0-0-0-0-0-0-0----|
   PM|---------------|

D|----------------------------------|
A|----------------------------------|
F|----------------------------------|
C|----7------------5------5----4----|
G|----5------------3------3----2----|
D|----------------------------------|

D|-----------------------|
A|-----------------------|
F|-----------------------|
C|-----------------------|
G|-----------------------| x8
D|----0-0-0-0-0-0-0-0----|
   PM|---------------|

D|----------------------------------|
A|----------------------------------|
F|----------------------------------|
C|----7------------5------5----4----|
G|----5------------3------3----2----|
D|----------------------------------|

D|-----------------------|
A|-----------------------|
F|-----------------------|
C|-----------------------|
G|-----------------------| x8
D|----0-0-0-0-0-0-0-0----|
   PM|---------------|

D|----------------------------------|
A|----------------------------------|
F|----------------------------------|
C|----7------------5----------------|
G|----5------------3------5----7----|
D|------------------------3----5----|

D|---------------------------------------------------------------------------|
A|---------------------------------------------------------------------------|
F|----9--9----9--9----9--9----11----8/9--9--9----9--9----9--9----11----8/9---|
C|---------------------------------------------------------------------------|
G|----7--7----7--7----7--7----9-----6/7--7--7----7--7----7--7----9-----6/7---|
D|---------------------------------------------------------------------------|

D|-------------------------------------------------|
A|-------------------------------------------------|
F|----12--12----12--12----12--12----14----11/12----|
C|-------------------------------------------------|
G|----10--10----10--10----10--10----12-----9/10----|
D|-------------------------------------------------|

D|--------------------------------------------------------------------------------------|
A|--------------------------------------------------------------------------------------|
F|----12p11p9\8-11p9p8----9p8------8----------------------------------------------------|
C|---------------------10-----10-9---10p9p7-10p9p7----9p7------7------------------------|
G|-------------------------------------------------10-----10-9---10p9p7-10p9p7\6-7~~----|
D|--------------------------------------------------------------------------------------|


[Chorus 2]

D|----------------------------------------------------------|
A|----------------------------------------------------------|
F|----5--------7--------------------------------------------|
C|----5--------7--------------------------------------------| x3
G|----3--------5-------------7-----7-----7-----7-----6h7----| 
D|----3--------5--------0-10---0-9---0-8---0-7---0-7--------|

D|---------------------------------------------------------------------------|
A|---------------------------------------------------------------------------|
F|---------------------------------------------------------------------------|
C|----5----------------7----------------7----------------9-------------------|
G|----3----------------4----------------5----------------6-------------------|
D|---------------------------------------------------------------------------|


[Solo]

D|-----------------------------------------------------------|
A|-----------------------------------------------------------|
F|----9-------11/12---11--9--7/9--7--7\5--5-----4--5\4-------|
C|-----------------------------------------------------------|
G|----7--------9/10----9--7--5/7--5--5\3--3-----2--3\2-------|
D|------------------------------------------------------0----|

D|---------------------|
A|---------------------|
F|---------------------|
C|----7p5h7p5h7p5h7p5--| x5
G|---------------------|
D|---------------------|

D|---------------------------------------------------------------------------|
A|---------------------------------------------------------------------------|
F|---------------------------------------------------------------------------|
C|--------5-7---5-7---5-7h9-5h7---5-7-9-5h7---5-7h9-5-7---5h7p5---5-7-9------|
G|----7-9-----9-----9-----------9-----------9-----------9-------9------------|
D|---------------------------------------------------------------------------|

D|-------------------------------------------------7h8----7-8h10/12-8h10p8---|
A|------------------------------------7h8---7h8h10-----10--------------------|
F|----5h7---5-7-9-5h7p5---5-7h9-5h7h9-----9----------------------------------|
C|--------9-------------9----------------------------------------------------|
G|---------------------------------------------------------------------------|
D|---------------------------------------------------------------------------|

D|-------8---------------8h10h12-10p8----8\7-8p7----7----------|
A|----12---10h12-8h10h12--------------12---------10---10b12----|
F|-------------------------------------------------------------|
C|-------------------------------------------------------------|
G|-------------------------------------------------------------|
D|-------------------------------------------------------------|

D|-----------------------------------------7----------------------------------------------------------|
A|----10b12r10p8--10--8--7h8p7--------------------------10b12----10b12r10p8-10-8---8h10p8\7-7b8r7-----|
F|-----------------------------9-----7--9-----9----------------------------------9--------------------|
C|--------------------------------9-------------------------------------------------------------------|
G|----------------------------------------------------------------------------------------------------|
D|----------------------------------------------------------------------------------------------------|

D|----------------------8h12p8----12----8h12p8----8------------------12----------------|
A|----7h8p7---7h8h10/12--------12----12--------12---9/13-15p13-15b17----15p12----------|
F|----------9-----------------------------------------------------------------14b16----|
C|-------------------------------------------------------------------------------------|
G|-------------------------------------------------------------------------------------|
D|-------------------------------------------------------------------------------------|

D|----------------------------------------------------------------14h15-------------|
A|----12h15p12-------------------------------12h14----12h14h15/17-------17p15h17----|
F|-------------14b16r14p12----14----12h14h15-------15-------------------------------|
C|-------------------------14----14-------------------------------------------------|
G|----------------------------------------------------------------------------------|
D|----------------------------------------------------------------------------------|

D|----14h15----14h15h17-14h15h17/19-19b21--------19b21r19-15-19-17h19p17p15-17-15h17p15\14\12-----|
A|----------17------------------------------------------------------------------------------------|
F|------------------------------------------------------------------------------------------------|
C|------------------------------------------------------------------------------------------------|
G|------------------------------------------------------------------------------------------------|
D|------------------------------------------------------------------------------------------------|

D|----15p14p12----14p12-------15p14p12----14p12-------15p14p12----14p12-------15p14p12----14p12----------|
A|-------------15-------15p12----------15-------15p12----------15-------15p12----------15-------15p12----|
F|-------------------------------------------------------------------------------------------------------|
C|-------------------------------------------------------------------------------------------------------|
G|-------------------------------------------------------------------------------------------------------|
D|-------------------------------------------------------------------------------------------------------|

D|----15p14p12----14p12-------12----------------------------------------------------------------------|
A|-------------15-------15p12----15-13-15-13\12-13p12-13p12----12-------------------------------------|
F|----------------------------------------------------------14----15-14p12-15p14p12----14p12----------|
C|----------------------------------------------------------------------------------14-------14p12----|
G|----------------------------------------------------------------------------------------------------|
D|----------------------------------------------------------------------------------------------------|

D|-------------------------------------------------------------------------------------------------------|
A|----------------------------------------------------------------12----------12h13p12-------12h14p12----|
F|----15p14p12----14p12-------15p14p12----14p12-------15p14p12-------15p14p12----------14p12-------------|
C|-------------14-------14p12----------14-------14p12----------14----------------------------------------|
G|-------------------------------------------------------------------------------------------------------|
D|-------------------------------------------------------------------------------------------------------|

D|----------------------------12-------------------12----------------------------------------------|
A|----------12-------12-15-------15b17----------------15-12----------------------------------------|
F|----14p12----14p12----------------------------------------14b16r14p12-14----12------14p12--12----|
C|-------------------------------------------------------------------------14----------------------|
G|-------------------------------------------------------------------------------------------------|
D|-------------------------------------------------------------------------------------------------|


[Bridge]

D|--------------------------------------------------------------------------------|
A|--------10----------------10--------------------10--------------------10--13----|
F|----12------11--------12------12--------11--12------11--------11--12------------|
C|--------------------------------------------------------------------------------|
G|--------------------------------------------------------------------------------|
D|--------------------------------------------------------------------------------|


D|---------------------------------------------12-------14-------14-------14-------15-------|
A|----15b17r15--13--15------------15b17--------15b17----17b19----17b19----17b19----18b20----|
F|------------------------------------------------------------------------------------------|
C|------------------------------------------------------------------------------------------|
G|------------------------------------------------------------------------------------------|
D|------------------------------------------------------------------------------------------|

D|-----------------------|
A|-----------------------|
F|-----------------------|
C|-----------------------|
G|-----------------------| x4
D|----0-0-0-0-0-0-0-0----|
   PM|---------------|

D|----22\\\\\\\\\\\\\12--|
A|-----------------------|
F|-----------------------|
C|-----------------------|
G|-----------------------| 
D|-----------------------|


[Chorus 3]

D|----------------------------------------------------------|
A|----------------------------------------------------------|
F|----5--------7--------------------------------------------|
C|----5--------7--------------------------------------------| x3
G|----3--------5-------------7-----7-----7-----7-----6h7----| 
D|----3--------5--------0-10---0-9---0-8---0-7---0-7--------|

D|---------------------------------------------------------------------------|
A|---------------------------------------------------------------------------|
F|---------------------------------------------------------------------------|
C|----5----------------7----------------7----------------9-------------------|
G|----3----------------4----------------5----------------6-------------------|
D|---------------------------------------------------------------------------|


[Outro]

D|-----------------------|
A|-----------------------|
F|-----------------------|
C|-----------------------|
G|-----------------------| x4
D|----0-0-0-0-0-0-0-0----|
   PM|---------------|

D|-------------------------------------------------------------------------------------|
A|-------------------------------------------------------------------------------------|
F|-------------------------------------------------------------------------------------|
C|-------------------------------------------------------------------------------------|
G|-----------------------------------------------------2--6--5--------5--6--4--2-------|
D|----16\\\\\\\\\\\\\10--9--8--7--6--5--4--------3--4-----------------------------4----|

D|------------------------------------11-----11-----11-----11-----9------9------9------9--------|
A|------------------------------------13b15--13b15--13b15--13b15--11b13--11b13--11b13--11b13----|
F|----------------------------------------------------------------------------------------------|
C|-------------6--5--------5--6--4\2------------------------------------------------------------|
G|----------2-----------------------------------------------------------------------------------|
D|----3--4--------------------------------------------------------------------------------------|

D|----10-----10-----10-----10-----9------9------9------9--------|
A|----13b15--13b15--13b15--13b15--12b14--12b14--12b14--12b14----|
F|--------------------------------------------------------------|
C|--------------------------------------------------------------|
G|--------------------------------------------------------------|
D|--------------------------------------------------------------|

D|----10-----10-----10-----10-----9------9------9------9------10-----10-----10-----12-------|
A|----13b15--13b15--13b15--13b15--12b14--12b14--12b14--12b14--13b15--13b15--13b15--15b17----|
F|------------------------------------------------------------------------------------------|
C|------------------------------------------------------------------------------------------|
G|------------------------------------------------------------------------------------------|
D|------------------------------------------------------------------------------------------|


************************************
| h   Hammer-on
| p   Pull-off
| r   Release
| b   Bend
| /   Slide up
| \   Slide down
| ~   Vibrato
| PM  Palm mute
************************************

            
            
Suggest correction
Creating personal tab
Creating personal tab
You can edit any tab online and save it as your Personal.

You can edit, replace or remove any tab part or add personal notes – all changes will be seen only by you.

Personal tabs can be accessed anytime from any device, even offline.
Learn more »
Give kudos to tab author, rate the tab!
1 2 3 4 5
comments
print report bad tab
guest
You may want to rate the tab now too:
select rating
Wanna post a correction for this tab? Suggest correction