Oops, an error
Loading. Please wait.

Shadow Life bass

version 1
version 1

Whole song

Interactive

by Slash
1,493 views 12 this week
no commentswrite comment
1 2 3 4 5
1 last vote to show rating
add to favorites
×
Save as Personal and add changes to this tab that will be seen only by you. Learn more ›
×
You can save this tab as Personal to edit and correct it or add notes. All changes will be seen only by you. Learn more »
launch autoscroll
font size
0
reset
guitar tuner
edit
Autoscroll
slow
fast
+/-
esc
set tempo
stop
Author
Difficulty
-------------------------------------------------------------------------------
                             Slash - Shadow Life
-------------------------------------------------------------------------------

Tabbed by: Peavel
Tuning: Standard


Intro
G|-----------------|-----------------|-----------------|-----------------|
D|-----------------|-----------------|-----------------|---------------5/|
A|-----------------|-----------------|-----------------|-----------------|
E|-----------------|-----------------|-----------------|-----------------|
   1 + 2 + 3 + 4 +   1 + 2 + 3 + 4 +   1 + 2 + 3 + 4 +   1 + 2 + 3 + 4 +

G|-----------------|-----------------|-----------------|-----------------|
D|/10--------------|-----------------|-----------------|-----------------|
A|---------------6-|-----------------|/11------------10|--------\2-------|
E|-----------------|-----------------|-----------------|-----------------|
   1 + 2 + 3 + 4 +   1 + 2 + 3 + 4 +   1 + 2 + 3 + 4 +   1 + 2 + 3 + 4 +

G|-----------------|-----------------|-----------------|-----------------|
D|-----------------|-----------------|-----------------|-----------------|
A|-3-------------6-|-----------------|/11--------------|-6------\1-------|
E|-----------------|-----------------|-----------------|-----------------|
   1 + 2 + 3 + 4 +   1 + 2 + 3 + 4 +   1 + 2 + 3 + 4 +   1 + 2 + 3 + 4 +


Riff
G|---------------------------------|---------------------------------|
D|---------------------------------|---------------------------------|
A|-3-----2---------1---------------|-3-----2---------1---------------|
E|-------------3---------1---1-2h3-|-------------3---------1---1-2h3-|
   1 - + - 2 - + - 3 - + - 4 - + -   1 - + - 2 - + - 3 - + - 4 - + - 

G|---------------------------------|---------------------------------|
D|---------------------------------|---------------------------------|
A|-3-----2---------1---------------|-3-----2---------1------/6~------|
E|-------------3---------1---1-2h3-|-------------3-------3-----------|
   1 - + - 2 - + - 3 - + - 4 - + -   1 - + - 2 - + - 3 - + - 4 - + - 

G|---------------------------------|---------------------------------|
D|---------------------------------|---------------------------------|
A|-3-----2---------1---------------|-3-----2---------1---------------|
E|-------------3---------1---1-2h3-|-------------3---------1---1-2h3-|
   1 - + - 2 - + - 3 - + - 4 - + -   1 - + - 2 - + - 3 - + - 4 - + - 

G|---------------------------------|---------------------------------|
D|---------------------------------|---------------------------------|
A|-3-----2---------1---------------|-------------3---8-------6-------|
E|-------------3---------1-----2---|-3-----2-------------------------|
   1 - + - 2 - + - 3 - + - 4 - + -   1 - + - 2 - + - 3 - + - 4 - + - 


Verse 1
G|---------------------------------|---------------------------------|
D|---------------------------------|-1---1---------------------------|
A|-------------------------3-1-----|-------------------------3-1-----|
E|-8\--------------------------3-1-|-----------------------------3-1-|
   1 - + - 2 - + - 3 - + - 4 - + -   1 - + - 2 - + - 3 - + - 4 - + - 

G|---------------------------------|---------------------------------|
D|---------------------------------|---------------------------------|
A|-------------------------3-1-----|-------------------------6-------|
E|-1---1-----------------------3-1-|-4---------------6---------------|
   1 - + - 2 - + - 3 - + - 4 - + -   1 - + - 2 - + - 3 - + - 4 - + -  

G|---------------------------------|---------------------------------|
D|---------------------------------|-1---1---------------------------|
A|-------------------------3-1-----|-------------------------3-1-----|
E|-8\--------------------------3-1-|-----------------------------3-1-|
   1 - + - 2 - + - 3 - + - 4 - + -   1 - + - 2 - + - 3 - + - 4 - + - 

G|---------------------------------|---------------------------------|
D|---------------------------------|---------------------------------|
A|-------------------------3-1-----|---------------------------------|
E|-1---1-----------------------3-1-|-4---------------6---------------|
   1 - + - 2 - + - 3 - + - 4 - + -   1 - + - 2 - + - 3 - + - 4 - + -  

G|-----------------|-----------------|-----------------|-------------------|
D|-----------------|-----------------|-----------------|-------------------|
A|-----------------|-----------------|/3-3-3-1-3-1-----|-------------------|
E|-4-4-4-4-4-4-4-4-|/6-6-6-6-6-6-6-4-|-------------3-1-|-1-1-1-1-13-8-11-8-|
   1 + 2 + 3 + 4 +   1 + 2 + 3 + 4 +   1 + 2 + 3 + 4 +   1 + 2 + 3  + 4  +

G|-----------------|---------------------------------|
D|-----------------|-----------------8---------------|
A|-----------------|-------------6-------------------|
E|-4-4-4-4-4-4-4-4-|-4-----6-------------------------|
   1 + 2 + 3 + 4 +   1 - + - 2 - + - 3 - + - 4 - + - 


Chorus
G|-----------------|-------------------------|-----------------|-----------------|
D|-----------------|-------------------------|-----------------|-----------------|
A|-----------------|-------------------------|-----------------|-----------------|
E|-8-8-8-8-8-8-8-8-|/11-11-11-11-11-11-11-11-|\4-4-4-4-4-4-4-4-|-3-3-3-3/7-7-7-7-|
   1 + 2 + 3 + 4 +   1  +  2  +  3  +  4  +    1 + 2 + 3 + 4 +   1 + 2 + 3 + 4 +

G|-----------------|-------------------------|-----------------|-----------------|
D|-----------------|-------------------------|-----------------|-----------------|
A|-----------------|-------------------------|-----------------|-6---------------|
E|-8-8-8-8-8-8-8-8-|/11-11-11-11-11-11-11-11-|\4-4-4-4-4-4-4-4-|---------6-------|
   1 + 2 + 3 + 4 +   1  +  2  +  3  +  4  +    1 + 2 + 3 + 4 +   1 + 2 + 3 + 4 +


Riff
G|---------------------------------|---------------------------------|
D|---------------------------------|---------------------------------|
A|-3-----2---------1---------------|-3-----2---------1---------------|
E|-------------3---------1---1-2h3-|-------------3---------1---1-2h3-|
   1 - + - 2 - + - 3 - + - 4 - + -   1 - + - 2 - + - 3 - + - 4 - + - 

G|---------------------------------|---------------------------------|
D|---------------------------------|---------------------------------|
A|-3-----2---------1---------------|-------------3---8-------6-------|
E|-------------3---------1-----2---|-3-----2-------------------------|
   1 - + - 2 - + - 3 - + - 4 - + -   1 - + - 2 - + - 3 - + - 4 - + - 


Verse 2
G|---------------------------------|---------------------------------|
D|---------------------------------|-1---1---------------------------|
A|-------------------------3-1-----|-------------------------3-1-----|
E|-8\--------------------------3-1-|-----------------------------3-1-|
   1 - + - 2 - + - 3 - + - 4 - + -   1 - + - 2 - + - 3 - + - 4 - + - 

G|---------------------------------|---------------------------------|
D|---------------------------------|---------------------------------|
A|-------------------------3-1-----|-------------------------6-------|
E|-1---1-----------------------3-1-|-4---------------6---------------|
   1 - + - 2 - + - 3 - + - 4 - + -   1 - + - 2 - + - 3 - + - 4 - + -  

G|---------------------------------|---------------------------------|
D|---------------------------------|-1---1---------------------------|
A|-------------------------3-1-----|-------------------------3-1-----|
E|-8\--------------------------3-1-|-----------------------------3-1-|
   1 - + - 2 - + - 3 - + - 4 - + -   1 - + - 2 - + - 3 - + - 4 - + - 

G|---------------------------------|---------------------------------|
D|---------------------------------|---------------------------------|
A|-------------------------3-1-----|---------------------------------|
E|-1---1-----------------------3-1-|-4---------------6---------------|
   1 - + - 2 - + - 3 - + - 4 - + -   1 - + - 2 - + - 3 - + - 4 - + -  

G|-----------------|-------------------|-----------------|-----------------|
D|-----------------|-------------------|-----------------|-----------------|
A|-----------------|-------------------|-------------8-6-|-8-8-8-6-8-6-----|
E|-4-4-4-4-4-4-4-4-|/6-6-6-6-6-6/11-10-|-8-8-8-8-8-6-----|-------------8-6-|
   1 + 2 + 3 + 4 +   1 + 2 + 3 + 4  +    1 + 2 + 3 + 4 +   1 + 2 + 3 + 4 +

G|-----------------|---------------------------------|
D|-----------------|-----------------8---------------|
A|-----------------|-------------6-------------------|
E|-4-4-4-4-4-1-3-1-|-4-----6-------------------11\---|
   1 + 2 + 3 + 4 +   1 - + - 2 - + - 3 - + - 4 - + - 


Chorus
G|-----------------|-------------------------|-----------------|-----------------|
D|-----------------|-------------------------|-----------------|-----------------|
A|-----------------|-------------------------|-----------------|-----------------|
E|-8-8-8-8-8-8-8-8-|/11-11-11-11-11-11-11-11-|\4-4-4-4-4-4-4-4-|-3-3-3-3/7-7-7-7-|
   1 + 2 + 3 + 4 +   1  +  2  +  3  +  4  +    1 + 2 + 3 + 4 +   1 + 2 + 3 + 4 +

G|-----------------|-------------------------|-----------------|-----------------|
D|-----------------|-------------------------|-----------------|-----------------|
A|-----------------|-------------------------|-----------------|-6---------------|
E|-8-8-8-8-8-8-8-8-|/11-11-11-11-11-11-11-11-|\4-4-4-4-4-4-4-4-|---------6-------|
   1 + 2 + 3 + 4 +   1  +  2  +  3  +  4  +    1 + 2 + 3 + 4 +   1 + 2 + 3 + 4 +


Bridge
G|-----------------|-----------------|-----------------|-----------------|
D|-----------------|-----------------|-----------------|-----------------|
A|-----------------|-----------------|-----------------|-----------------|
E|-3-3-3\----------|-4-4-4\----------|-8-8-8\----------|-1-1-----3-3-----|
   1 + 2 + 3 + 4 +   1 + 2 + 3 + 4 +   1 + 2 + 3 + 4 +   1 + 2 + 3 + 4 +

G|-----------------|-------------------|
D|-----------------|-------------------|
A|-----------------|-------------------|
E|-4-4-4-4-4-4-4-4-|-6-6-6-6-7-7-11-10-|
   1 + 2 + 3 + 4 +   1 + 2 + 3 + 4  +   


Solo
G|-----------------|-----------------|-----------------|-----------------|
D|-----------------|-----------------|-----------------|-----------------|
A|-----------------|-----------------|-----------------|-6-6-6-6-5-5---5-|
E|-8-8-8-8-8-8-8-8-|-4-4-4-4-4-4-4-4-|-1-1-1-1-1-1-1-1-|-------------6---|
   1 + 2 + 3 + 4 +   1 + 2 + 3 + 4 +   1 + 2 + 3 + 4 +   1 + 2 + 3 + 4 +

G|-----------------|-------------------------|-----------------|-----------------|
D|-----------------|-------------------------|-----------------|-----------------|
A|-----------------|/11-11-11-11-11-11-8-----|-8-8-8-8-8-8-8-8-|-6-6-6-6-5-5---5-|
E|-8-8-8-8-8-8-8-8-|----------------------11-|-----------------|-------------6---|
   1 + 2 + 3 + 4 +   1  +  2  +  3  +  4  +    1 + 2 + 3 + 4 +   1 + 2 + 3 + 4 +

G|-----------------|-----------------|-----------------|-------------------|
D|-----------------|-----------------|-----------------|-------------------|
A|-----------------|-----------------|-3-3-3-1-3-1-----|-------------------|
E|-4-4-4-4-4-4-4-4-|-3-3-3-3-3-3-6-3-|-------------3-1-|-1-1-1-1-13-8-11-8-|
   1 + 2 + 3 + 4 +   1 + 2 + 3 + 4 +   1 + 2 + 3 + 4 +   1 + 2 + 3  +  4 +

G|-----------------|---------------------------------|
D|-----------------|-----------------8\--------------|
A|-----------------|-------------6-------------------|
E|-4-4-4-4-4-1-3-1-|-4-----6-------------------------|
   1 + 2 + 3 + 4 +   1 - + - 2 - + - 3 - + - 4 - + - 


Riff
G|-----------------|-----------------|-----------------|-----------------|
D|-----------------|-----------------|-----------------|-----------------|
A|-----------------|-----------------|-----------------|-------------1---|
E|-----------------|-----------------|-----------------|-----------------|
   1 + 2 + 3 + 4 +   1 + 2 + 3 + 4 +   1 + 2 + 3 + 4 +   1 + 2 + 3 + 4 +

G|---------------------------------|---------------------------------|
D|---------------------------------|---------------------------------|
A|-3-----2---------1---------------|-3-----2---------1---------------|
E|-------------3---------1---1-2h3-|-------------3---------1---1-2h3-|
   1 - + - 2 - + - 3 - + - 4 - + -   1 - + - 2 - + - 3 - + - 4 - + - 

G|---------------------------------|---------------------------------|
D|---------------------------------|-----------------3---------------|
A|-3-----2---------1---------------|-------------3-------------------|
E|-------------3---------1-----2---|-3-----2-------------------------|
   1 - + - 2 - + - 3 - + - 4 - + -   1 - + - 2 - + - 3 - + - 4 - + - 


Chorus
G|-----------------|-------------------------|-----------------|-----------------|
D|-----------------|-------------------------|-----------------|-----------------|
A|-----------------|-------------------------|-----------------|-----------------|
E|-8-8-8-8-8-8-8-8-|/11-11-11-11-11-11-11-11-|\4-4-4-4-4-4-4-4-|-3-3-3-3/7-7-7-7-|
   1 + 2 + 3 + 4 +   1  +  2  +  3  +  4  +    1 + 2 + 3 + 4 +   1 + 2 + 3 + 4 +

G|-----------------|-------------------------|-----------------|-----------------|
D|-----------------|-------------------------|-----------------|-----------------|
A|-----------------|-------------------------|-----------------|-----------------|
E|-8-8-8-8-8-8-8-8-|/11-11-11-11-11-11-11-11-|\4-4-4-4-4-4-4-4-|-3-3-3-3-7-3-7-7-|
   1 + 2 + 3 + 4 +   1  +  2  +  3  +  4  +    1 + 2 + 3 + 4 +   1 + 2 + 3 + 4 +

G|-----------------|-------------------------|-----------------|-----------------|
D|-----------------|-------------------------|-----------------|-----------------|
A|-----------------|-------------------------|-----------------|-----------------|
E|-8-8-8-8-8-8-8-8-|/11-11-11-11-11-11-11-11-|\4-4-4-4-4-4-4-4-|-3-3-3-3-7-3-7-7-|
   1 + 2 + 3 + 4 +   1  +  2  +  3  +  4  +    1 + 2 + 3 + 4 +   1 + 2 + 3 + 4 +

G|-----------------|-------------------------|-----------------|-----------------|
D|-----------------|-------------------------|-----------------|-----------------|
A|-----------------|-------------------------|-----------------|-6---------------|
E|-8-8-8-8-8-8-8-8-|/11-11-11-11-11-11-11-11-|\4-4-4-4-4-4-4-4-|---------6-------|
   1 + 2 + 3 + 4 +   1  +  2  +  3  +  4  +    1 + 2 + 3 + 4 +   1 + 2 + 3 + 4 +


Riff 
G|---------------------------------|---------------------------------|
D|---------------------------------|---------------------------------|
A|-3-----2---------1---------------|-3-----2---------1---------------|
E|-------------3---------1---1-2h3-|-------------3---------1---1-2h3-|
   1 - + - 2 - + - 3 - + - 4 - + -   1 - + - 2 - + - 3 - + - 4 - + - 

G|---------------------------------|---------------------------------|
D|---------------------------------|---------------------------------|
A|-3-----2---------1---------------|-3-----2---------1------/6~------|
E|-------------3---------1---1-2h3-|-------------3-------3-----------|
   1 - + - 2 - + - 3 - + - 4 - + -   1 - + - 2 - + - 3 - + - 4 - + - 

G|---------------------------------|---------------------------------|
D|---------------------------------|---------------------------------|
A|-3-----2---------1---------------|-3-----2---------1---------------|
E|-------------3---------1---1-2h3-|-------------3---------1---1-2h3-|
   1 - + - 2 - + - 3 - + - 4 - + -   1 - + - 2 - + - 3 - + - 4 - + - 

G|---------------------------------|---------------------------------|
D|---------------------------------|-----------------3-------1-------|
A|-3-----2---------1---------------|-------------3-------------------|
E|-------------3---------1-----2---|-3-----2-------------------------|
   1 - + - 2 - + - 3 - + - 4 - + -   1 - + - 2 - + - 3 - + - 4 - + - 

G|---------------------------------|
D|---------------------------------|
A|-3-------------------------------|
E|---------------------------------|
   1 - + - 2 - + - 3 - + - 4 - + - 


| /  slide up
| \  slide down
| h  hammer-on
| p  pull-off
| ~  vibrato
| +  harmonic
| x  Mute note
===============================================================================

            
            
Suggest correction
Creating personal tab
Creating personal tab
You can edit any tab online and save it as your Personal.

You can edit, replace or remove any tab part or add personal notes – all changes will be seen only by you.

Personal tabs can be accessed anytime from any device, even offline.
Learn more »
Give kudos to tab author, rate the tab!
1 2 3 4 5
comments
print report bad tab
guest
You may want to rate the tab now too:
select rating
Wanna post a correction for this tab? Suggest correction