Oops, an error
Loading. Please wait.

Standing In The Sun bass

version 1
version 1

Whole song

Interactive

by Slash
1,278 views 1 this week
no commentswrite comment
1 2 3 4 5
x 3
add to favorites
×
Save as Personal and add changes to this tab that will be seen only by you. Learn more ›
×
You can save this tab as Personal to edit and correct it or add notes. All changes will be seen only by you. Learn more »
launch autoscroll
font size
0
reset
guitar tuner
edit
Autoscroll
slow
fast
+/-
esc
set tempo
stop
Author
Difficulty
-------------------------------------------------------------------------------
                             STANDING IN THE SUN - Slash
-------------------------------------------------------------------------------


Tabbed by: Isaias Garcia (TexasFury)

Tuning: Standard


     Intro                                                                       
     E  S  S S  S S  S E  E  S  S S  S    E  S  S S  S S  S E  E  S  S S  S  
G||------------------------------------|------------------------------------|
D||------------------------------------|------------------------------------|
A||------------------------------------|------------------------------------|
E||--2--0h-2-0h-2-2p-0-2--2--0h-2-2p-0-|--2--0h-2-0h-2-2p-0-2--2--0h-2-2p-0-|


  E  S  S S  S S  S E  E  S  S S  S    E  S  S S  S S  S E  E  S  S S  S  
------------------------------------|------------------------------------|
------------------------------------|------------------------------------|
------------------------------------|------------------------------------|
--2--0h-2-0h-2-2p-0-2--2--0h-2-2p-0-|--2--0h-2-0h-2-2p-0-2--2--0h-2-2p-0-|


  E  S  S S  S S  S E  E  S  S S  S    E  S  S S  S S  S E  E  S  S S  S  
------------------------------------|------------------------------------|
------------------------------------|------------------------------------|
------------------------------------|------------------------------------|
--2--0h-2-0h-2-2p-0-2--2--0h-2-2p-0-|--2--0h-2-0h-2-2p-0-2--2--0h-2-2p-0-|


  E  S  S S  S S  S E  E  S  S S  S    E  S  S S  S S  S E  E  S  S S  S  
------------------------------------|------------------------------------|
------------------------------------|------------------------------------|
------------------------------------|------------------------------------|
--2--0h-2-0h-2-2p-0-2--2--0h-2-2p-0-|--2--0h-2-0h-2-2p-0-2--2--0h-2-2p-0-|


  E  S  S S  S S  S E  E  S  S S  S    E  S  S S  S S  S E  E  S  S S  S  
------------------------------------|------------------------------------||
------------------------------------|------------------------------------||
------------------------------------|------------------------------------||
--2--0h-2-0h-2-2p-0-2--2--0h-2-2p-0-|--2--0h-2-0h-2-2p-0-2--2--0h-2-2p-0-||


  Verse 1                                                                      
  E  S  S S  S S  S E  E  S  S S  S    E  S  S S  S S  S E  E  S  S S  S  
------------------------------------|------------------------------------|
------------------------------------|------------------------------------|
------------------------------------|------------------------------------|
--2--0h-2-0h-2-2p-0-2--2--0h-2-2p-0-|--2--0h-2-0h-2-2p-0-2--2--0h-2-2p-0-|


  E  S  S S  S S  S E  E  S  S S  S    E  S  S S  S S  S E  E  S  S S  S  
------------------------------------|------------------------------------|
------------------------------------|------------------------------------|
------------------------------------|------------------------------------|
--2--0h-2-0h-2-2p-0-2--2--0h-2-2p-0-|--2--0h-2-0h-2-2p-0-2--2--0h-2-2p-0-|


  E  S  S S  S S  S E  E  S  S S  S    E  S  S S  S S  S E  E  S  S S  S  
------------------------------------|------------------------------------|
------------------------------------|------------------------------------|
------------------------------------|------------------------------------|
--2--0h-2-0h-2-2p-0-2--2--0h-2-2p-0-|--2--0h-2-0h-2-2p-0-2--2--0h-2-2p-0-|


  E  S  S S  S S  S E  E  S  S S  S    E  S  S S  S S  S E   E   Q      
------------------------------------|----------------------------------|
------------------------------------|----------------------------------|
------------------------------------|----------------------------9\----|
--2--0h-2-0h-2-2p-0-2--2--0h-2-2p-0-|--2--0h-2-0h-2-2p-0-2/--7/--------|


  E  S  S S  S S  S E  E  S  S S  S    E  S  S S  S S  S E  E  S  S S  S  
------------------------------------|------------------------------------|
------------------------------------|------------------------------------|
------------------------------------|------------------------------------|
--2--0h-2-0h-2-2p-0-2--2--0h-2-2p-0-|--2--0h-2-0h-2-2p-0-2--2--0h-2-2p-0-|


  E  S  S S  S S  S E  E  S  S S  S    E  S  S S  S S  S E  E  S  S S  S  
------------------------------------|------------------------------------|
------------------------------------|------------------------------------|
------------------------------------|------------------------------------|
--2--0h-2-0h-2-2p-0-2--2--0h-2-2p-0-|--2--0h-2-0h-2-2p-0-2--2--0h-2-2p-0-|


  E  S  S S  S S  S E  E  S  S S  S    E  S  S S  S S  S E  E  S  S S  S  
------------------------------------|------------------------------------|
------------------------------------|------------------------------------|
------------------------------------|------------------------------------|
--2--0h-2-0h-2-2p-0-2--2--0h-2-2p-0-|--2--0h-2-0h-2-2p-0-2--2--0h-2-2p-0-|


  E  S  S S  S S  S E  E  S  S S  S    E  S  S S  S E   E  E  S  S S  S  
------------------------------------|-----------------------------------||
------------------------------------|-----------------------------------||
------------------------------------|-------------------9--9--9p-7------||
--2--0h-2-0h-2-2p-0-2--2--0h-2-2p-0-|--2--0h-2-0h-2-2/-------------9p-7-||


  Chorus 1                                                       
  E  E  E  S S E  E  S S S S    E  E  E  S S E  E  S S E   
-----------------------------|----------------------------|
-----------------------------|----------------------------|
-----------------------------|----------------------------|
--5--5--5--5-0-5--5--0-5-5-0-|--5--5--5--5-0-5--5--0-5-5--|


  E  E  E  S S E  E  E  E      E  S  S S  S S  S E  E  S  S S S  
----------------------------|-----------------------------------|
----------------------------|-----------------------------------|
----------------------------|-----------------------------------|
--7--7--7--7-0-7--7--7--7\--|--2--0h-2-0h-2-2p-0-2--2--0h-2-2-2-|


  E  E  E  S S E  E  E  E     E  E  E  S S E  E  E  S S  
---------------------------|----------------------------|
---------------------------|----------------------------|
---------------------------|----------------------------|
--5--5--5--5-0-5--5--5--5--|--5--5--5--5-0-5--5--5--5-0-|


  E  E  E  S S E  E  S  S S  S    H.           Q      
-------------------------------|---------------------|
-------------------------------|---------------------|
--------------------------7h-9-|--9------------------|
--7--7--7--7-0-7--7--7h-9------|---------------9\----|


  E  S  S S  S S  S E  E  S  S S  S    E  S  S S  S S  S E  E  S  S S  S  
------------------------------------|------------------------------------|
------------------------------------|------------------------------------|
------------------------------------|------------------------------------|
--2--0h-2-0h-2-2p-0-2--2--0h-2-2p-0-|--2--0h-2-0h-2-2p-0-2--2--0h-2-2p-0-|


  E  S  S S  S S  S E  E  S  S S  S    E  S  S S  S S  S E  E   Q      
------------------------------------|---------------------------------||
------------------------------------|---------------------------------||
------------------------------------|---------------------------9\----||
--2--0h-2-0h-2-2p-0-2--2--0h-2-2p-0-|--2--0h-2-0h-2-2p-0-2--2/--------||


  Verse 2                                                                      
  E  S  S S  S S  S E  E  S  S S  S    E  S  S S  S S  S E  E  S  S S  S  
------------------------------------|------------------------------------|
------------------------------------|------------------------------------|
------------------------------------|------------------------------------|
--2--0h-2-0h-2-2p-0-2--2--0h-2-2p-0-|--2--0h-2-0h-2-2p-0-2--2--0h-2-2p-0-|


  E  S  S S  S S  S E  E  S  S S  S    E  S  S S  S S  S E  E   Q      
------------------------------------|---------------------------------|
------------------------------------|---------------------------------|
------------------------------------|---------------------------9\----|
--2--0h-2-0h-2-2p-0-2--2--0h-2-2p-0-|--2--0h-2-0h-2-2p-0-2--2/--------|


  E  S  S S  S S  S E  E  S  S S  S    E  S  S S  S S  S E  E  S  S S  S  
------------------------------------|------------------------------------|
------------------------------------|------------------------------------|
------------------------------------|------------------------------------|
--2--0h-2-0h-2-2p-0-2--2--0h-2-2p-0-|--2--0h-2-0h-2-2p-0-2--2--0h-2-2p-0-|


  E  S  S S  S S  S E  E  S  S S  S    E  E  Q     E  E  S  S E    
------------------------------------|-----------------------------||
------------------------------------|-----------------------------||
------------------------------------|--------------9--9--9p-7-----||
--2--0h-2-0h-2-2p-0-2--2--0h-2-2p-0-|--2--2--2/---------------9\--||


  Chorus 2                                                      
  E  E  E  S S E  E  E  S S    E  E  E  E  E  E  S S S S  
----------------------------|----------------------------|
----------------------------|----------------------------|
----------------------------|----------------------------|
--5--5--5--5-0-5--5--5--5-0-|--5--5--5--5--5--5--0-5-5-5-|


  E  E  E  S S E  E  S S E      E  S  S S  S S  S E  E  S S E    
-----------------------------|----------------------------------|
-----------------------------|----------------------------------|
-----------------------------|----------------------------------|
--7--7--7--7-0-7--7--0-7-7\--|--2--0h-2-0h-2-2p-0-2--2--2-2-2/--|


  E  E  E  E  E  E  S S S S    E  E  E  S S E  E  S S S S  
----------------------------|-----------------------------|
----------------------------|-----------------------------|
----------------------------|-----------------------------|
--5--5--5--5--5--5--0-5-5-0-|--5--5--5--5-0-5--5--5-5-5-0-|


  E  E  E  S S E  E  S  S S S    Q    E  E  E  E  E  E    
------------------------------|--------------------------||
------------------------------|--------------------------||
--------------------------7---|--9----9--9--9--9--9--9\--||
--7--7--7--7-0-7--7--7s-9---9-|--------------------------||


  Bridge                                                                            
  Q    E  E  E  E  E  E     E  E  E  E  E  E  E  E     Q    E  E  E  E  E  E   
-------------------------|--------------------------|-------------------------|
-------------------------|--------------------------|-------------------------|
--4----4--4--4--4--4--4--|--L--4--4--4--4--4--4-----|--2----2--2--0--2--0--2--|
-------------------------|-----------------------2--|-------------------------|


  E  E  Q    E  E  E  E     Q    E  E  E  E  E  E     E  E  E  E  E  E  E   E   
-------------------------|-------------------------|---------------------------|
-------------------------|-------------------------|---------------------------|
--L--0--2----0--2--2-----|--4----4--4--4--4--4--4--|--L--4--4--4--4--4--4\-----|
----------------------2--|-------------------------|------------------------2--|


  E  E  E  E  E  E  E  E     E  E  E  E  E  E  E  E    
--------------------------|---------------------------||
--------------------------|---------------------------||
--2--2--2--3--3--3--4--4--|--4--5--5--5--6--6--7--7\--||
--------------------------|---------------------------||


  Guitar Solo                                                                       
  E  S  S S  S S  S E  E  S  S S  S    E  S  S S  S S  S E  E  S  S S  S  
------------------------------------|------------------------------------|
------------------------------------|------------------------------------|
------------------------------------|------------------------------------|
--2--0h-2-0h-2-2p-0-2--2--0h-2-2p-0-|--2--0h-2-0h-2-2p-0-2--2--0h-2-2p-0-|


  E  S  S S  S S  S E  E  S  S S  S    E  S  S S  S S  S E  E  Q      
------------------------------------|--------------------------------|
------------------------------------|--------------------------------|
------------------------------------|--------------------------9\----|
--2--0h-2-0h-2-2p-0-2--2--0h-2-2p-0-|--2--0h-2-0h-2-2p-0-2--2--------|


  E  S  S S  S S  S E  E  S  S S  S    E  S  S S  S S  S E  E  S  S S  S  
------------------------------------|------------------------------------|
------------------------------------|------------------------------------|
------------------------------------|------------------------------------|
--2--0h-2-0h-2-2p-0-2--2--0h-2-2p-0-|--2--0h-2-0h-2-2p-0-2--2--0h-2-2p-0-|


  E  S  S S  S S  S E  E  S  S S  S    E  S  S S  S E   S  S S S S  S  S S  
------------------------------------|--------------------------------------|
------------------------------------|--------------------------------------|
------------------------------------|------------------------7---7h-9p-7---|
--2--0h-2-0h-2-2p-0-2--2--0h-2-2p-0-|--2--0h-2-0h-2-2/--7h-9---9---------9-|


  E  S  S S  S S  S E  E  S  S S  S    E  S  S S  S S  S E  E  S  S S  S  
------------------------------------|------------------------------------|
------------------------------------|------------------------------------|
------------------------------------|------------------------------------|
--2--0h-2-0h-2-2p-0-2--2--0h-2-2p-0-|--2--0h-2-0h-2-2p-0-2--2--0h-2-2p-0-|


  E  S  S S  S S  S E  E  S  S S  S    E  S  S S  S S  S E  E  S  S S  S  
------------------------------------|------------------------------------|
------------------------------------|------------------------------------|
------------------------------------|------------------------------------|
--2--0h-2-0h-2-2p-0-2--2--0h-2-2p-0-|--2--0h-2-0h-2-2p-0-2--2--0h-2-2p-0-|


  E  S  S S  S S  S E  E  S  S S  S    E  S  S S  S S  S E  E  S  S S  S  
------------------------------------|------------------------------------|
------------------------------------|------------------------------------|
------------------------------------|------------------------------------|
--2--0h-2-0h-2-2p-0-2--2--0h-2-2p-0-|--2--0h-2-0h-2-2p-0-2--2--0h-2-2p-0-|


  E  S  S S  S S  S E  E  S  S E      E  S  S S  S S  S E  E  S  S E    
-----------------------------------|-----------------------------------||
-----------------------------------|-----------------------------------||
-----------------------------------|--9--7h-9-7h-9-9p-7-9--9--9p-7-----||
--2--0h-2-0h-2-2p-0-2--2--0h-2-5/--|-------------------------------9\--||


  Chorus 3                                                       
  E  E  E  S S E  E  S S S S    E  E  E  S S E  E  S S E   
-----------------------------|----------------------------|
-----------------------------|----------------------------|
-----------------------------|----------------------------|
--5--5--5--5-0-5--5--0-5-5-0-|--5--5--5--5-0-5--5--0-5-5--|


  E  E  E  S S E  E  E  E      E  S  S S  S S  S E  E  S  S E    
----------------------------|-----------------------------------|
----------------------------|-----------------------------------|
----------------------------|-----------------------------------|
--7--7--7--7-0-7--7--7--5\--|--2--0h-2-0h-2-2p-0-2--2--0h-2-2/--|


  E  E  E.  S E  E  E  E     E  E  E  S S E  E  S S E    
--------------------------|-----------------------------|
--------------------------|-----------------------------|
--------------------------|-----------------------------|
--5--5--5---0-5--5--5--5--|--5--5--5--5-0-5--5--0-5-5/--|


  E  E  E  S S E  E  S  S S S    E  S  S S  S S  S E  E  S  S S  S  
------------------------------|------------------------------------|
------------------------------|------------------------------------|
--------------------------7---|--9--7h-9-7h-9-9p-7-9--9--9p-7------|
--7--7--7--7-0-7--7--7s-9---9-|-------------------------------9p-7-|


  E  E  E  S S E  E  S S S S    E  E  E  S S E  E  S S S S  
-----------------------------|-----------------------------|
-----------------------------|-----------------------------|
-----------------------------|-----------------------------|
--5--5--5--5-0-5--5--0-5-5-0-|--5--5--5--5-0-5--5--0-5-5-5-|


  E  E  E  S S E  E  E  E      E  S  S S  S S  S E  E  S S E    
----------------------------|----------------------------------|
----------------------------|----------------------------------|
----------------------------|----------------------------------|
--7--7--7--7-0-7--7--7--5\--|--2--0h-2-0h-2-2p-0-2--2--0-2-2/--|


  E  E  E  S S E  E  E  S S    E  E  E  S S E  E  S S E    
----------------------------|-----------------------------|
----------------------------|-----------------------------|
----------------------------|-----------------------------|
--5--5--5--5-0-5--5--5--5-0-|--5--5--5--5-0-5--5--0-5-5/--|


  E  E  E  E  E  E  E  S  S    S E  S E  S S S S E  S S E    
----------------------------|-------------------------------||
----------------------------|--7-9--7-9--7-9-L-7-9--9-7-----||
-----------------------7h-9-|---------------------------9\--||
--7--7--7--7--7--7--7-------|-------------------------------||


  Outro                                                                       
  E  S  S S  S S  S E  E  S  S S  S    E  S  S S  S S  S E  E  S  S S  S  
------------------------------------|------------------------------------|
------------------------------------|------------------------------------|
------------------------------------|------------------------------------|
--2--0h-2-0h-2-2p-0-2--2--0h-2-2p-0-|--2--0h-2-0h-2-2p-0-2--2--0h-2-2p-0-|


  E  S  S S  S S  S E  E  S  S S  S    E  S  S S  S E   S  S S S S  S S  S  
------------------------------------|--------------------------------------|
------------------------------------|--------------------------------------|
------------------------------------|------------------------7---7h-9------|
--2--0h-2-0h-2-2p-0-2--2--0h-2-2p-0-|--2--0h-2-0h-2-2/--7h-9---9------7h-9-|


  E  S  S S  S S  S E  E  S  S S  S    E  S  S S  S S  S E  E  S  S S  S  
------------------------------------|------------------------------------|
------------------------------------|------------------------------------|
------------------------------------|------------------------------------|
--2--0h-2-0h-2-2p-0-2--2--0h-2-2p-0-|--2--0h-2-0h-2-2p-0-2--2--0h-2-2p-0-|


  E  S  S S  S S  S E  E  S  S S  S    E  S  S S  S S  S E  E    Q      
------------------------------------|----------------------------------|
------------------------------------|----------------------------------|
------------------------------------|-----------------------4/--12\----|
--2--0h-2-0h-2-2p-0-2--2--0h-2-2p-0-|--2--0h-2-0h-2-2p-0-2-------------|


  E  S  S S  S S  S E  E  S  S S  S    E  S  S S  S S  S E  E  S  S S  S  
------------------------------------|------------------------------------|
------------------------------------|------------------------------------|
------------------------------------|------------------------------------|
--2--0h-2-0h-2-2p-0-2--2--0h-2-2p-0-|--2--0h-2-0h-2-2p-0-2--2--0h-2-2p-0-|


  E  S  S S  S S  S E  E  S  S S  S    E  S  S S  S S  S E  E    Q      
------------------------------------|----------------------------------|
------------------------------------|----------------------------------|
------------------------------------|-----------------------4/--12\----|
--2--0h-2-0h-2-2p-0-2--2--0h-2-2p-0-|--2--0h-2-0h-2-2p-0-2-------------|


  E  S  S S  S S  S E  E  S  S S  S    E  S  S S  S S  S E  E  S  S S  S  
------------------------------------|------------------------------------|
------------------------------------|------------------------------------|
------------------------------------|------------------------------------|
--2--0h-2-0h-2-2p-0-2--2--0h-2-2p-0-|--2--0h-2-0h-2-2p-0-2--2--0h-2-2p-0-|


  E  S  S S  S S  S E  E  S  S S  S    E  S  S S  S S  S E  E  S  E.    
------------------------------------|----------------------------------|
------------------------------------|----------------------------------|
------------------------------------|----------------------------------|
--2--0h-2-0h-2-2p-0-2--2--0h-2-2p-0-|--2--0h-2-0h-2-2p-0-2--2--0h-2~---|


  Q    Q    H          
---------------------||
---------------------||
---------------------||
--L------------------||



Duration Legend
---------------
W - whole
H - half
Q - quarter
E - 8th
S - 16th

Tablature Legend
----------------
L - tied note
g - grace note
h - hammer on
p - pull off

Get my other tabs for Guitar Pro, Powertab, guitar/bass text and chords at
http://profile.ultimate-guitar.com/TexasFury/contributions/

            
            
Suggest correction
Creating personal tab
Creating personal tab
You can edit any tab online and save it as your Personal.

You can edit, replace or remove any tab part or add personal notes – all changes will be seen only by you.

Personal tabs can be accessed anytime from any device, even offline.
Learn more »
Give kudos to tab author, rate the tab!
1 2 3 4 5
comments
print report bad tab
guest
You may want to rate the tab now too:
select rating
Wanna post a correction for this tab? Suggest correction