Oops, an error
Loading. Please wait.

Starlight bass

version 1
version 1

Whole song

Interactive

by Slash
2,737 views 3 this week
4 commentsread comments
1 2 3 4 5
x 5
add to favorites
×
Save as Personal and add changes to this tab that will be seen only by you. Learn more ›
×
You can save this tab as Personal to edit and correct it or add notes. All changes will be seen only by you. Learn more »
launch autoscroll
font size
0
reset
guitar tuner
backing track
0:00
0:00
edit
Autoscroll
slow
fast
+/-
esc
set tempo
stop
Author
i tuned this in Drop D so that there was no need to change tunings between songs

0:26
G|-----------------------------------------------------------------|
D|-----------------------------------------------------------------|
A|-3-----------------------------3-3-------------------------------|
D|-----------------------------------------------------------------|
   1 + 2 + 3 + 4 + 1 + 2 + 3 + 4 + 1 + 2 + 3 + 4 + 1 + 2 + 3 + 4 +

G|-----------------------------------------------------------------|
D|-----------------------------------------------------------------|
A|---------------------------------3-----------3-/-15----------15-\|
D|-5---------------5-----------------------------------------------|
   1 + 2 + 3 + 4 + 1 + 2 + 3 + 4 + 1 + 2 + 3 + 4 + 1 + 2 + 3 + 4 +

G|-----------------------------------------------------------------|
D|-----------------------------------------------------------------|
A|-10--------------------------------------------------------------|
D|-----------------5---------5---5\3-----------\---3---------------|
   1 + 2 + 3 + 4 + 1 + 2 + 3 + 4 + 1 + 2 + 3 + 4 + 1 + 2 + 3 + 4 +

G|-------------------------------------------------|
D|-------------------------------------------------|
A|-3-----------------------------------------------|
D|-----------------5-----5-3---3-3-5-5-5-5-5-5-555-|
   1 + 2 + 3 + 4 + 1 + 2 + 3 + 4 + 1 + 2 + 3 + 4 + 

1:07
G|-----------------------------------------------------------------|
D|-----------------------------------------------------------------|
A|-----------------------------------------------------------------|
D|-10------10------10--10----10----10------10------10--10----10-\--|
   1 e + a 2 e + a 3 e + a 4 e + a 1 e + a 2 e + a 3 e + a 4 e + a

G|-----------------------------------------------------------------|
D|-----------------------------------------------------------------|
A|-----------------------------------------------------------------|
D|-5-------5-------5---5-----5-----5-------5-------5---5-----5-/---|
   1 e + a 2 e + a 3 e + a 4 e + a 1 e + a 2 e + a 3 e + a 4 e + a

G|-----------------------------------------------------------------|
D|-----------------------------------------------------------------|
A|-----------------------------------------------------------------|
D|-10------10------10--10----10----10------10------10--10----10-\--|
   1 e + a 2 e + a 3 e + a 4 e + a 1 e + a 2 e + a 3 e + a 4 e + a

G|-----------------------------------------------------------------|
D|-----------------------------------------------------------------|
A|-----------------------------------------------------------------|
D|-5-------5-------5---5-----5-----5-------5-------5---5-----5-\---|
   1 e + a 2 e + a 3 e + a 4 e + a 1 e + a 2 e + a 3 e + a 4 e + a

1:34
G|-----------------------------------------------------------------|
D|-----------------------------------------------------------------|
A|-----------------------------------------------------------------|
D|-3-------3-------3---3-----3-----3-------3-------3---3-/-5-/-7-8-|
   1 e + a 2 e + a 3 e + a 4 e + a 1 e + a 2 e + a 3 e + a 4 e + a

G|-----------------------------------------------------------------|
D|-----------------------------------------------------------------|
A|-----------------------------------------------------------------|
D|-10------------------------10-7-8-10------------------10----10\--|
   1 e + a 2 e + a 3 e + a 4 e  + a 1 e + a 2 e + a 3 e + a 4 e + a

G|-----------------------------------------------------------------|
D|-----------------------------------------------------------------|
A|---------------------------------------------------/-12----10\---|
D|-5-------------------10----10\---5-------------------------------|
   1 e + a 2 e + a 3 e + a 4 e + a 1 e + a 2 e + a 3 e + a 4 e + a

G|-----------------------------------------------------------------|
D|-----------------------------------------------------------------|
A|-3-------------------3-----3-----3-----------------/-12----10--8-|
D|-----------------------------------------------------------------|
   1 e + a 2 e + a 3 e + a 4 e + a 1 e + a 2 e + a 3 e + a 4 e + a

G|-----------------------------------------------------------------|
D|-----------------------------------------------------------------|
A|-10--------------\-------------------------------------------3h5-|
D|---------------------5-----5-----5-------------------5-----------|
   1 e + a 2 e + a 3 e + a 4 e + a 1 e + a 2 e + a 3 e + a 4 e + a

2:06
G|-----------------------------------------------------------------|
D|-----------------------------------------------------------------|
A|-8-------8-----------8-------8-\---------------------------------|
D|---------------------------------3-------3-----------3-------3h5-|
   1 e + a 2 e + a 3 e + a 4 e + a 1 e + a 2 e + a 3 e + a 4 e + a

G|-----------------------------------------------------------------|
D|-----------------------------------------------------------------|
A|-3-------------------3-----3-------------------------------------|
D|---------------------------------5---5---5---5---5-5-5-5-5-3-5-3-|
   1 e + a 2 e + a 3 e + a 4 e + a 1 e + a 2 e + a 3 e + a 4 e + a

2:17
G|-----------------------------------------------------------------|
D|-----------------------------------------------------------------|
A|-----------------------------------------------------------------|
D|-10------10------10--10----10----10------10------10--10----10-\--|
   1 e + a 2 e + a 3 e + a 4 e + a 1 e + a 2 e + a 3 e + a 4 e + a

G|-----------------------------------------------------------------|
D|-----------------------------------------------------------------|
A|-----------------------------------------------------------------|
D|-5-------5-------5---5-----5-----5-------5-------5---5-----5-/---|
   1 e + a 2 e + a 3 e + a 4 e + a 1 e + a 2 e + a 3 e + a 4 e + a

G|-----------------------------------------------------------------|
D|-----------------------------------------------------------------|
A|-----------------------------------------------------------------|
D|-10------10------10--10----10----10------10------10--10----10-\--|
   1 e + a 2 e + a 3 e + a 4 e + a 1 e + a 2 e + a 3 e + a 4 e + a

G|-----------------------------------------------------------------|
D|-----------------------------------------------------------------|
A|-----------------------------------------------------------------|
D|-5-------5-------5---5-----5-----5-------5-------5---5-----5-\---|
   1 e + a 2 e + a 3 e + a 4 e + a 1 e + a 2 e + a 3 e + a 4 e + a

2:45
G|-----------------------------------------------------------------|
D|-----------------------------------------------------------------|
A|-----------------------------------------------------------------|
D|-3-------3-------3---3-----3-----3-------3-------3---3-----5-/---|
   1 e + a 2 e + a 3 e + a 4 e + a 1 e + a 2 e + a 3 e + a 4 e + a

G|-----------------------------------------------------------------|
D|-----------------------------------------------------------------|
A|-----------------------------------------------------------------|
D|-10------10------10--10----10-\--5-------5-------3---3-----3-/---|
   1 e + a 2 e + a 3 e + a 4 e + a 1 e + a 2 e + a 3 e + a 4 e + a

G|---------------------------------|
D|---------------------------------|
A|---------------------------------|
D|-5-5-5-5-5-5-5-5-5-5-5-5-5-7-5-3-|
   1 e + a 2 e + a 3 e + a 4 e + a

3:02
G|-----------------------------------------------------------------|
D|-----------------------------------------------------------------|
A|-1---1---1---1---5---5---5---5---3---3---3---3-1-----------------|
D|-------------------------------------------------5---5---5-5-5---|
   1 e + a 2 e + a 3 e + a 4 e + a 1 e + a 2 e + a 3 e + a 4 e + a

G|---------------------------------------------5h7-9-7-5h7-5-------|
D|-----------------------------------------3h5---------------7-5-7-|
A|-1---1---1---1---5---5---5---5---3---3h5-------------------------|
D|-----------------------------------------------------------------|
   1 e + a 2 e + a 3 e + a 4 e + a 1 e + a 2 e + a 3 e + a 4 e + a

G|-----------------------------------------------------------------|
D|-----------------------------------------------------------------|
A|-1---1---1---1---5---5---5---5---3---3---3---3-1-----------------|
D|-------------------------------------------------5---5---5---5---|
   1 e + a 2 e + a 3 e + a 4 e + a 1 e + a 2 e + a 3 e + a 4 e + a

G|-----------------------------------------------------------------|
D|-----------------------------------------------------------------|
A|-----------------------------------------------------------------|
D|-3---3---3-----3-3---3-----3-----3---3---3-----3-3---3-----3-/---|
   1 e + a 2 e + a 3 e + a 4 e + a 1 e + a 2 e + a 3 e + a 4 e + a

G|-----------------------------------------------------------------|
D|-----------------------------------------------------------------|
A|-5---5---5---5---5---5---5---5-5-5---5-5-5---5-5-5---5-5-5-5-----|
D|-------------------------------------------------------------5-3-|
   1 e + a 2 e + a 3 e + a 4 e + a 1 e + a 2 e + a 3 e + a 4 e + a

3:39
G|-----------------------------------------------------------------|
D|-----------------------------------------------------------------|
A|-----------------------------------------------------------------|
D|-2-------2-------2---2-----2-----5-------5-------5---5-----5-----|
   1 e + a 2 e + a 3 e + a 4 e + a 1 e + a 2 e + a 3 e + a 4 e + a

G|-----------------------------------------------------------------|
D|-----------------------------------------------------------------|
A|---------------------------------3-------3-------3---3-----3-----|
D|-2-------2-------2---2-----2-------------------------------------|
   1 e + a 2 e + a 3 e + a 4 e + a 1 e + a 2 e + a 3 e + a 4 e + a

G|-----------------------------------------------------------------|
D|---------------------------------------------------5-8---5-8---8-|
A|---------------------------------6-------6-------6-----6-----6---|
D|-5-------5-------5---5-----5-------------------------------------|
   1 e + a 2 e + a 3 e + a 4 e + a 1 e + a 2 e + a 3 e + a 4 e + a

G|-----------------------------------------------------------------|
D|---------------------------------------------------------------5-|
A|-------------------5-8---5-8-5-6-8---8---8---8---8---8---8-5-8---|
D|-8-------8-------8-----8-----------------------------------------|
   1 e + a 2 e + a 3 e + a 4 e + a 1 e + a 2 e + a 3 e + a 4 e + a

G|-----------------------------------------------------------------|
D|-----------------------------------------------------------------|
A|-3---3---3---3---3---3---3-2-3-5---------------------------------|
D|---------------------------------5---5---5---5---5---5---5-5-5---|
   1 e + a 2 e + a 3 e + a 4 e + a 1 e + a 2 e + a 3 e + a 4 e + a

4;17
G|---------------------------------|
D|-------------5---5---5---5-------|
A|---------7-7---7-------7---7-5-7-|
D|-5---7---------------------------|
   1 e + a 2 e + a 3 e + a 4 e + a 

4:21
G|-----------------------------------------------------------------|
D|-----------------------------------------------------------------|
A|-----------------------------------------------------------------|
D|-10------10------10--10----10----10------10------10--10----10-\--|
   1 e + a 2 e + a 3 e + a 4 e + a 1 e + a 2 e + a 3 e + a 4 e + a

G|-----------------------------------------------------------------|
D|-----------------------------------------------------------------|
A|-------------------5-------------------5\------------------------|
D|-5-------5-------5---5-----5-----5-------5-------5---5-----5-----|
   1 e + a 2 e + a 3 e + a 4 e + a 1 e + a 2 e + a 3 e + a 4 e + a

G|-----------------------------------------------------------------|
D|---------------/-7---5---------------5---------/-7---5-----------|
A|-3-------3---------------5-7-5-3-5h7---------------------5-7-5-3-|
D|-----------------------------------------------------------------|
   1 e + a 2 e + a 3 e + a 4 e + a 1 e + a 2 e + a 3 e + a 4 e + a

G|-----------------------------------------------------------------|
D|-----------------------------------------------------------------|
A|-------------------------------------5-\-------------------------|
D|-5-------5-------r---5-----5-----5-------5-------5---5-----5-\---|
   1 e + a 2 e + a 3 e + a 4 e + a 1 e + a 2 e + a 3 e + a 4 e + a

4:49
G|-----------------------------------------------------------------|
D|-----------------------------------------------------------------|
A|-----------------------------------------------------------------|
D|-3-------3-------3---3-----3-----3-------3-------3---3-----5-/---|
   1 e + a 2 e + a 3 e + a 4 e + a 1 e + a 2 e + a 3 e + a 4 e + a

G|---------------------------------------------------------------------|
D|---------------------------------------------------------------------|
A|---------------------------------------------------------------------|
D|-10------10------10--10----10-\--5-------5-------3---3---3---3---5---|
   1 e + a 2 e + a 3 e + a 4 e + a 1 e + a 2 e + a 3 e + a 4 e + a

5:09
G|-5---------------------------------------------------------------|
D|-----------------------------------------------------------------|
A|-----------------------------------------------------------------|
D|-----------------------------------------------------------------|
   1 e + a 2 e + a 3 e + a 4 e + a 1 e + a 2 e + a 3 e + a 4 e + a

G|-----------------------------------------------------------------|
D|-5---------------------------------------------------------------|
A|-----------------------------------------------------------------|
D|-----------------------------------------------------------------|
   1 e + a 2 e + a 3 e + a 4 e + a 1 e + a 2 e + a 3 e + a 4 e + a

Tabbed by Dave Vucko

            
            
Suggest correction
Creating personal tab
Creating personal tab
You can edit any tab online and save it as your Personal.

You can edit, replace or remove any tab part or add personal notes – all changes will be seen only by you.

Personal tabs can be accessed anytime from any device, even offline.
Learn more »
comments
print report bad tab
4 comments total. Showing first comments.
-2 reply
kellynickels 3,017 Mar 12, 2013 07:38 AM

It's half step down

+1 reply
Teh D Bot 11,992 May 19, 2013 05:20 PM

FYI, kellynickels, It can actually be played in standard, the tuning for the bass[for me anyways] is more based on preference. You vote my tab 2 stars and complain about tuning[i'm assuming this is your reasoning, as the tab is the only one and is accurate], then when someone else votes it higher, you change your vote to a 1 star, so as to further insult my work. So if you wanna play it in Eb standard tab the song yourself FROM EAR and quit complaining. Thank you.

+1 reply
Creepingivy 10 Oct 12, 2013 06:53 AM

Just thought I'd comment to say that although Slash/Guns/Snakepit/Revolver etc are all mostly played with half step, Starlight was written for standard and can easily be converted to Drop D. If you try retabbing for half step, it's a really awkward tuning, and there are lots of unintuitive fulls through out. I personally play it in standard, but Drop D looks a pretty good choice too. Cheers for tabbing though man, always appreciate the effort people put in to getting these tracks down.

guest
You may want to rate the tab now too:
select rating
Wanna post a correction for this tab? Suggest correction