Oops, an error
Loading. Please wait.

Starlight Acoustic chords

version 6
version 6

Interactive

by Slash
970 views 12 this week
no commentswrite comment
1 2 3 4 5
1 last vote to show rating
add to favorites
×
Save as Personal and add changes to this tab that will be seen only by you. Learn more ›
×
You can save this tab as Personal to edit and correct it or add notes. All changes will be seen only by you. Learn more »
launch autoscroll
font size
0
reset
transpose
0
reset
simplify chords
display chords
guitar tuner
backing track
0:00
0:00
edit
Autoscroll
slow
fast
+/-
esc
set tempo
stop
Author
Difficulty
Strumming
There is no strumming pattern for this song yet. and get +5 IQ
-------------------------------------------------------------------------------
                             Starlight - Slash ft. Miles Kennedy
-------------------------------------------------------------------------------
Tabbed by: chamathkahp66
E-mail: chamathkahp666@gmail.com

     A5
e|---0---|
B|---0---|
G|---2---|
D|---2---|
A|---0---|
E|---X---|

Tuning: Standard

e|---------------------------------|------------------------------------------|
B|-4h5----------5----5-------------|-4h5----------5----5----------------------|
G|-4------------4h3--4--4-----4--4-|-4------------4h3--4--4-------------------|
D|-4h6------------------4h6---4--3-|-4h6------------------4h6--4--------------|
A|---------------------------------|------------------------------------------|
E|---------------------------------|------------------------------------------|

e|-------------------7-------------|------------------------------------------|
B|--4----------4h5------5h4--------|---4-------4h5--4----4h5-----4------------|
G|---------------------------------|------------------------------------------|
D|--4----------4h6-----------------|---4-------4h6--4----4h6-----4------------|
A|---------------------------------|------------------------------------------|
E|---------------------------------|------------------------------------------|

e|-0---0-----------------0---------|----0------0------0h2--0------------------|
B|-2----------0h2--0------2--0-----|----0h2----0h2----2----2---0h2---0--------|
G|-2-------2---------2----------2--|----2------2-----------------------2------|
D|---------------------------------|------------------------------------------|
A|---------------------------------|------------------------------------------|
E|---------------------------------|------------------------------------------|

e|-0------0h2--0-------0-----------|------------------------------------------|
B|-0h2----2----2----0h2------4-----|------------------------------------------|
G|-2------2------------------4-----|------------------------------------------|
D|---------------------------4-----|------------------------------------------|
A|---------------------------------|------------------------------------------|
E|---------------------------------|------------------------------------------|


(Verse 1)

        A5
In the distance, light years from tomorrow
      E
Far beyond, yesterday
       A5
She is watching, heart aching with sorrow
       E
She is broken, as she waits
            G
Hoping when all is said and done
            D               E      
We learn to love and be as one

(Chorus)

   A5                                                         E
Oh starlight don’t you cry we’re gonna make it right before tomorrow
   A5                                                           E
Oh starlight don’t you cry we’re gonna find a place, where we belong (where we belong)
             D                       A5
And so you know, you’ll never shine alone

(Verse 2)

           A5
There are shadows sleeping on the horizon
          E
Leave us scared and so afraid
        A5
As the fallout of a world divided
               E
It brings her tears and so much pain
             G
And we take cover from the dark
           D                   E     
Hoping to find where we can start

(Chorus)

   A5                                                         E
Oh starlight don’t you cry we’re gonna make it right before tomorrow
   A5                                                           E
Oh starlight don’t you cry we’re gonna find a place, where we belong (where we belong)
             D                       A5
And so you know, you’ll never shine alone
                 A5                     E   D     E           G
Starlight we’ll find a place where we belong, we belong

(Bridge)

G        Bm            A                G
You will see as the mountains fall and turn to dust
G            Bm                     A        G
That there’s one thing that won’t change
G     Bm              A                              G
I believe there is something within each of us that always stays
      E
That always remains…

(Chorus)

   A5                                                         E
Oh starlight don’t you cry we’re gonna make it right before tomorrow
   A5                                                           E
Oh starlight don’t you cry we’re gonna find a place, where we belong (where we belong)
             D                       A5
And so you know, you’ll never shine alone
                 A5                     E   D     E           
Starlight we’ll find a place where we belong, we belong

She is-

e|---------------------------------|------------------------------------------|
B|-4h5----------5----5-------------|-4h5----------5----5----------------------|
G|-4------------4h3--4--4-----4--4-|-4------------4h3--4--4-------------------|
D|-4h6------------------4h6---4--3-|-4h6------------------4h6--4--------------|
A|---------------------------------|------------------------------------------|
E|---------------------------------|------------------------------------------|

watching        heart aching with    sorrow               She is

e|-------------------7-------------|------------------------------------------|
B|--4----------4h5------5h4--------|---4--------------------------------------|
G|---------------------------------|------------------------------------------|
D|--4----------4h6-----------------|---4--------------------------------------|
A|---------------------------------|------------------------------------------|
E|---------------------------------|------------------------------------------|

broken          as she                waits


            
            
Suggest correction
Creating personal tab
Creating personal tab
You can edit any tab online and save it as your Personal.

You can edit, replace or remove any tab part or add personal notes – all changes will be seen only by you.

Personal tabs can be accessed anytime from any device, even offline.
Learn more »
Give kudos to tab author, rate the tab!
1 2 3 4 5
comments
print report bad tab
guest
You may want to rate the tab now too:
select rating
Wanna post a correction for this tab? Suggest correction