Oops, an error
Loading. Please wait.

Watch This bass

version 1
version 1

Whole song

Interactive

by Slash
3,657 views 1 this week
no commentswrite comment
1 2 3 4 5
2 more votes to show rating
add to favorites
×
Save as Personal and add changes to this tab that will be seen only by you. Learn more ›
×
You can save this tab as Personal to edit and correct it or add notes. All changes will be seen only by you. Learn more »
launch autoscroll
font size
0
reset
guitar tuner
backing track
0:00
0:00
edit
Autoscroll
slow
fast
+/-
esc
set tempo
stop
Title: Watch This
Artist: Slash
Album: Slash & Friends
tabbed by jjhand
Tuning - Drop D

No Bass during first 4 bars, until after audio slow-down effect, then play:

Part 1 - Main Riff
G|-------------------------|-------------------------|
D|-------------------------|-------------------------| play 4x
A|----5--3-----5--2-----1--|----5--2-----1-----------|
D|-0--------0--------0-----|-0--------0-----0--5--3--|


Lead Guitar Comes in with repeating part - 
Play Main Riff 4x more with palm mutes to quiet the bass

First Guitar Solo - play Main Riff 7x without mutes, then play this ending:

G|-------------------------|------------------------|
D|-------------------------|------------------------|
A|----5--3-----5--2-----1--|----5--2-----1----------|
D|-0--------0--------0-----|-0--------0-----0--2----|


Part 2 (Chords change to F, then A)- 
Play 4x                            Then play:
G|---------------------|         |-----------------------|
D|---------------------|         |-----------------------|
A|---------------------|         |-0----0----0-----3--0--| continue
D|-3----3----3----3----|         |--------------5--------| below


G|-------------------------|-----------------------|-----------------------------|
D|-------------------------|-----------------------|--------------10--10--9------|
A|(0)-0--3--5--6--7--5--3--|-0----0----0-----3--0--|(0)--0--3--0-------------10--|
D|-------------------------|--------------5--------|-----------------------------|


G|-----------------------|-------------------------|-----------------------|
D|-----------------------|-------------------------|-----------------------|
A|-0----0----0-----3--0--|(0)-0--3--5--6--7--5--3--|-0----0----0-----3--0--|
D|--------------5--------|-------------------------|--------------5--------|


G|-------------------------|
D|-------------------------|
A|(0)-0--3--0--------------|
D|-------------3--3--2--1--|


Play 2x with loud guitar then bar of silence
G|---------------------------------|--------|
D|---------------------------------|--------|
A|---------------------------------|--------|
D|-----0---0-------0---0-------0---|--------|


Play Part 1 Again with a similar solo (play Main Riff 7x, then play ending below)

G|---------------------------------|---------------------------------|
D|---------------------------------|---------------------------------|
A|-----5---3-------5---2-------1---|-----5---2-------1-----------0---|
D|-0-----------0-----------0-------|-0-----------0-------0---5-------|



Slower Section (Alternates Between Bb and D chords) 
G|--------|--------------|--------|--------------|
D|--------|--------------|--------|--------------|
A|-1------|-1---------0--|-1------|-1------3--4--|
D|--------|--------5-----|--------|--------------|


G|--------|-------------|--------|-------------|--------|----------------|--------|
D|--------|-------------|--------|-------------|--------|----------------|--------|
A|-5------|-5-----------|--------|---------3---|-1------|-1----------0---|-1------|
D|--------|---------3---|-0------|-0-----------|--------|--------5-------|--------|


G|-------------|--------|----------------|-------------|-------------|--------|----------------|
D|-------------|--------|----------------|-------------|-------3-----|--------|----------------|
A|-1------3----|--------|--------3---4---|-5-----5-----|-5-----------|-1------|-1----------0---|
D|-------------|-0------|-0--------------|-------------|-------------|--------|--------5-------|


G|-------------|---------------------|--------|--------|--------|-------------|--------|
D|-------------|---------------------|--------|--------|--------|-------------|--------|
A|-1-----1-----|-1----1----1----3----|--------|--------|--------|--------3----|-1------|
D|-------------|---------------------|-0------|-0------|-0------|-0-----------|--------|


G|--------|-------------|-----------------|-------------|-------------|--------|-------------|
D|--------|-------------|-----------------|-------------|-------------|-5------|-3-----2-----|
A|-1------|-1-----1-----|-1----1----1-----|-0-----0-----|-0-----0-----|--------|-------------|
D|--------|-------------|-----------------|-------------|-------------|--------|-------------|


Part 2 returns
G|---------------------------|------------------------|---------------------------|
D|---------------------------|------------------------|---------------------------|
A|---------------------------|------------------------|---------------------------|
D|-3---3---3----3---3----3---|-3---3---3----3----3----|-3---3---3----3---3----3---|


G|------------------------|---------------------------|---------------------------------|
D|------------------------|---------------------------|---------------------------------|
A|------------------------|-0----0----0-------3---0---|-0---0---3---5---6---7---5---3---|
D|-3---3---3----3----3----|---------------5-----------|---------------------------------|


G|---------------------------|---------------------------------|
D|---------------------------|---------------------------------|
A|-0----0----0-------3---0---|-0---0---3---0-------------------|
D|---------------5-----------|-----------------3---3---2---1---|


Play Main Riff 3x, then play this bar:
G|---------------------------------|---------5-------5---7--------|
D|---------------------------------|----/7-------7----------------|
A|-----5---3-------5---2-------1---|-------------------------8----|
D|-0-----------0-----------0-------|-0----------------------------|


Ending: play this line 3x
G|---------------------------------|---------------------------------|
D|---------------------------------|---------------------------------|
A|-----5---3-------5---2-------1---|-----5---2-------1---------------|
D|-0-----------0-----------0-------|-0-----------0-------0---5---3---|


G|---------------------------------|--------|
D|---------------------------------|--------|
A|-----5---3-------5---2-------1---|--------|
D|-0-----------0-----------0-------|--------|


KEY:
/   Slide
()  Note held over from last bar

            
            
Suggest correction
Creating personal tab
Creating personal tab
You can edit any tab online and save it as your Personal.

You can edit, replace or remove any tab part or add personal notes – all changes will be seen only by you.

Personal tabs can be accessed anytime from any device, even offline.
Learn more »
Give kudos to tab author, rate the tab!
1 2 3 4 5
comments
print report bad tab
guest
You may want to rate the tab now too:
select rating
Wanna post a correction for this tab? Suggest correction