Oops, an error
Loading. Please wait.

Were All Gonna Die Bass Tab

version 1
version 1

Whole song

Interactive

411 views 1 this week
no commentswrite comment
1 2 3 4 5
please rate
add to favorites
launch autoscroll
font size
0
reset
guitar tuner
Autoscroll
slow
fast
+/-
esc
set tempo
stop
Help us to improve Ultimate-Guitar.com Take our survey!
×
Author
Difficulty
intermediate
credit to songsterr for the sheet music/tabs

Intro - 
G|--------------|--------------|----------------|
D|--------------|--------------|----------------|
A|--------------|--------------|------5-5---5-7-|
E|-0~-----------|-5------------|--3-3-----3-----|

Intro Cont. - X2
G|----------------|-------------|---------------|----------------|
D|----------------|-------------|---------------|----------------|
A|-----7--7-7-5-7-|---7-7-------|---------------|------5-5---5-7-|
E|-0--------------|-------3-3-4-|-5--5--5-0-3-5-|--3-3-----3-----|

Verse - X2
G|-----------------|-----------------|-----------------|-----------------|
D|-----------------|-----------------|-----------------|-----------------|
A|-----------------|-----------------|-----------------|-----------------|
E|-0-0-0-0-0-0-0-0-|-0-0-0-0-0-0-0-0-|-5-5-5-5-5-5-5-5-|-5-5-5-5-5-5-5-5-|

Pre Chorus - 
G|-----------------|  |-----------------|  |-----------------|
D|-----------------|  |-----------------|  |-----------------|
A|-----------------|  |-----------------|  |-5-5-5-5-5-5-5-5-|
E|-3-3-3-3-3-3-3-3-|X2|-7-7-7-7-7-7-7-7-|X2|-----------------|X2

G|-----------------|----------------|
D|-----------------|----------------|
A|-----------------|------5-5---5-7-|
E|-5-5-5-5-5-5-5-5-|--3-3-----3-----|

Chorus - X4
G|----------------|-------------|---------------|----------------|
D|----------------|-------------|---------------|----------------|
A|-----7--7-7-5-7-|---7-7-------|---------------|------5-5---5-7-|
E|-0--------------|-------3-3-4-|-5--5--5-0-3-5-|--3-3-----3-----|

Verse 2 - X2
G|-----------------|-----------------|-----------------|-----------------|
D|-----------------|-----------------|-----------------|-----------------|
A|-----------------|-----------------|-----------------|-----------------|
E|-0-0-0-0-0-0-0-0-|-0-0-0-0-0-0-0-0-|-5-5-5-5-5-5-5-5-|-5-5-5-5-5-5-5-5-|

Pre Chorus - 
G|-----------------|  |-----------------|  |-----------------|
D|-----------------|  |-----------------|  |-----------------|
A|-----------------|  |-----------------|  |-5-5-5-5-5-5-5-5-|
E|-3-3-3-3-3-3-3-3-|X2|-7-7-7-7-7-7-7-7-|X2|-----------------|X2

G|-----------------|----------------|
D|-----------------|----------------|
A|-----------------|------5-5---5-7-|
E|-5-5-5-5-5-5-5-5-|--3-3-----3-----|

Chorus - X4
G|----------------|-------------|---------------|----------------|
D|----------------|-------------|---------------|----------------|
A|-----7--7-7-5-7-|---7-7-------|---------------|------5-5---5-7-|
E|-0--------------|-------3-3-4-|-5--5--5-0-3-5-|--3-3-----3-----|

Break - 
G|-----------------|-----------------|  |-----------------|-----------------|
D|-----------------|-----------------|  |-----------------|-----------------|
A|-0-X-0-X-0-----0-|-X-0-0-X-0-----0-|  |-2-X-2-X-2-----2-|-X-2-2-X-2-----2-|
E|-----------0-3---|-----------0-3---|X2|-----------2-5---|-----------2-5---|

G|-----------------|-----------------|
D|-----------------|-----------------|
A|-2-X-2-X-2-----2-|-2-2-2-2-2-2-2-2-|
E|-----------2-5---|-----------------|

Solo -
G|----------------|-------------|---------------|----------------|
D|----------------|-------------|---------------|----------------|
A|-----7--7-7-5-7-|---7-7-------|---------------|------5-5---5-7-|
E|-0--------------|-------3-3-4-|-5--5--5-0-3-5-|--3-3-----3-----| X2

G|-----------------|  |-----------------|  |-----------------|
D|-----------------|  |-----------------|  |-----------------|
A|-----------------|  |-----------------|  |-5-5-5-5-5-5-5-5-|
E|-3-3-3-3-3-3-3-3-|X2|-7-7-7-7-7-7-7-7-|X2|-----------------|X2

G|-----------------|----------------|
D|-----------------|----------------|
A|-----------------|------5-5---5-7-|
E|-5-5-5-5-5-5-5-5-|--3-3-----3-----|

Chorus - X4 (last bar is 4th time only)                                    
G|----------------|-------------|---------------|----------------|----------|
D|----------------|-------------|---------------|----------------|----------|
A|-----7--7-7-5-7-|---7-7-------|---------------|------5-5---5-7-|----------|
E|-0--------------|-------3-3-4-|-5--5--5-0-3-5-|--3-3-----3-----|-7--------|

Outro - X3
G|----------------|-------------|---------------|----------------|
D|----------------|-------------|---------------|----------------|
A|-----7--7-7-5-7-|---7-7-------|---------------|------5-5---5-7-|
E|-0--------------|-------3-3-4-|-5--5--5-0-3-5-|--3-3-----3-----|

thats it, hope you enjoy
Suggest correction
What's this?
You can suggest a correction to this tab. Community and Mods will review your correction and vote to approve or reject it.
comments
We did not receive enough feedback on this tab! Please rate:
print report bad tab
1 2 3 4 5
guest
You may want to rate the tab now too:
select rating
Please do not post tabs as comments. Select "correction" instead!