Oops, an error
Loading. Please wait.

Give Into Me tab

version 3
version 3

Whole song

19,623 views 6 this week
1 commentread comment
1 2 3 4 5
1 last vote to show rating
add to favorites
×
Save as Personal and add changes to this tab that will be seen only by you. Learn more ›
×
You can save this tab as Personal to edit and correct it or add notes. All changes will be seen only by you. Learn more »
launch autoscroll
font size
0
reset
how to read this tab
guitar tuner
edit
Autoscroll
slow
fast
+/-
esc
set tempo
stop
Author
Difficulty
Author/Artist: Michael Jackson, feat. Slash
Title: Give in to Me
Album: Dangerous

Intro/Verse

     Em                C       D
----|----------------------------------|--------------------------------------|
----|----------------------------------|--------------------------------------|
----|------------------------0-------0-|--------------------------------------|
--2-|-----2-4-4/5-4-2------2-------4---|--------------------------------------|
----|---2--------------2-3-----3/5-----|--------------------------------------|
----|-0--------------------------------|--------------------------------------|

Pre-Chorus
  B             A
-|----------------------------------------------------------------------------|
-|----------------------------------------------------------------------------|
-|-4-4-4-4-4-4--2-2-2-2-------4-4-4-4--/7---4-4-4-4---------------------------|
-|-4-4-4-4-4-4--2-2-2-2-------4-4-4-4--/7---4-4-4-4---------------------------|
-|-2-2-2-2-2-2--0-0-0-0-----0-2-2-2-2--/5---5-5-5-5---------------------------|
-|------------------------3---------------------------------------------------|

1st Chorus
         Em          C   B
-|-----|---0----------------|--------------------------------------------------|
-|-----|---0---------1---3--|--------------------------------------------------|
-|-----|---0---------0---0--|--5--4--------------------------------------------|
-|-----|-------------2---4--|--5--4--------------------------------------------|
-|-7\-|-2-----------3---5--|--3--2---------------------------------------------|
-|-----|-0------------------|--------------------------------------------------|
                           x3
2nd/3rd/4th Chorus (play behind 1st chorus)
-|-----------------|--------------------------------------|---------0----------|
-|-----------------|--------------------------------------|---------0----------|
-|-----------------|--------------------------------------|-------------5--4---|
-|-----------------|-----0-2v---5b-----------0-2v--5b--5v-|-----0-2-----5--4---|
-|-7\-------------|-0h2-----------------0h2--------------|-0-2---------3--2----|
-|-----\\\\----|--------------------------------------|------------------------|
         pick scrape                                             last time

Bridge
  Am                  G              Em
-|----5-5------5-5------3-3-----3-3-------0--------------0--------------------|
-|----5-5------5-5------3-3-----3-3----0--0--0--0-----0--0--0-0---------------|
-|----5-5------5-5------4-4-----4-4----0--0--0--0-----0--0--0-0---------------|
-|-7-------7-7--------5-----5-5------2-2-----2--2--2--2-----2-2---------------|
-|-7-------7-7--------5-----5-5------2-2-----------2--2-----------------------|
-|-5-------5-5------5-3-----3-3------0-------------0--------------------------|
|  freely..............................................................      |
|                                                                            |
-|----------------------------------------------------------------------------|
-|----------------------------------------------------------------------------|
-|-------------------------------0h2--2/4-2v----0h2-2/4--2v-------------------|
-|----------------------------------------------------------------------------|
-|----------------------------------------------------------------------------|
-|----------------------------------------------------------------------------|

   Am          G           F        B
-|---5-5---5-5---3-3--3-3-------0---------------------------------------------|
-|---5-5---5-5---3-3--3-3----0--0-------5--5---4-4-4--------------------------|
-|---5-5---5-5---4-4--4-4----2--0---4-4-4--4---4-4-4--------------------------|
-|-7-----7-----5-----5-----3-3------4-4-4--4---4-4-4--------------------------|
-|-7-----7-----5-----5-----3-3------2-2-2--2---2-2-2--------------------------|
-|-5-----5-----3-----3-----1--------------------------------------------------|


1st Solo
--------------------------------------------------------7h10------7h10--7-----|
-------------------7--7br-p5--5b--5v----10br-p8--------------10b----------10--|
--9br-p7--9v-----9------------------------------9v----------------------------|
---------------9--------------------------------------------------------------|
------------------------------------------------------------------------------|
------------------------------------------------------------------------------|


--------------10----10---------------------------------------------------------|
-7h10---10/12----12----12--1210-108------15bv--15b-17b-17b----17br-p15---------|
------------------------------------------------------------------------16-----|
-------------------------------------------------------------------------------|
-------------------------------------------------------------------------------|
-------------------------------------------------------------------------------|


---------------------17b--------------------r\\\\------------------------------|
-17b-17v---17br-p15------------------------------------------------------------|
-------------------------------------------------------------------------------|
-------------------------------------------------------------------------------|
-------------------------------------------------------------------------------|
-------------------------------------------------------------------------------|

2nd Solo
-------------------------------------------------------------------------------|
-------------------------------------------------------------------------------|
--------------------------------------7----------------------------------------|
----------------5b----7bv-p5---7br-p5---4v--5-5p4-------5---5---------7-7-5----|
---------5-6-7---------------7--------------------5--5h7--7---7---5---------7--|
-\----7------------------------------------------------------------7-----------|


--------------------------------|--------|-------------|----------------------|
---------------------------5-5--|-7br-p5-|-7-8p7--10p7-|-7-8p7-10p7----8p-----|
-----------7-7--9--9------------|--------|-------------|------------9---------|
--9-9-7-------------------------|--------|-------------|----------------------|
---------9----------------------|--------|-------------|----------------------|
--------------------------------|--------|-------------|----------------------|
                                      x8            x20
					   (get faster)

---------------------7-8p7-10p7-8p7-----------7h8h10-10-----10----------------|
-10p7-----8p7-10p7------------------10--7h8h10-----------10b---10r-7-10-------|
------9-----------------------------------------------------------------------|
------------------------------------------------------------------------------|
------------------------------------------------------------------------------|
------------------------------------------------------------------------------|


-----10-----------------------/10-10-10-10-10-10--10-10-----/12-12-12-12-12---|
-10b----10-7-10-7---10b-------------------------------------------------------|
------------------------9-9---------------------------------------------------|
------------------------------------------------------------------------------|
------------------------------------------------------------------------------|
------------------------------------------------------------------------------|


-12-12----12-12br-12br-12br-12-12--12b-12b-12-12--12b-12b-12-12--14b----------|
------------------------------------------------------------------------------|
------------------------------------------------------------------------------|
------------------------------------------------------------------------------|
------------------------------------------------------------------------------|
------------------------------------------------------------------------------|
                                     grad. bend

--10b-7----7-------7----------------------------------------------------------|
--------10---10-10----10b-----------------------------------------------------|
------------------------------------------------------------------------------|
------------------------------------------------------------------------------|
----------------------------------------------------4-4-4h5-5-5-7-7-7-5---5---|
------------------------------------0--/5-7-5-7-5-7---------------------7-----|
                                      trem pick..............................

------------------------------------------------------------------------------|
-------------------------------------------7-7-7-8-8-8-10-10-10-8-8---8-8-10--|
-------------------------5-5-5/7-7-7/9-9-9--------------------------9---------|
-4-4-4h5-5-5-7-7-7-5---5------------------------------------------------------|
---------------------7--------------------------------------------------------|
------------------------------------------------------------------------------|
 ............................................................................

----7-7-7-8-8-8-10-10-10-7-7----7-7-8-8-10-10-8--------10--------10----10-----|
-10--------------------------10-----------------10-----10b----10b---10b-------|
------------------------------------------------------------------------------|
------------------------------------------------------------------------------|
------------------------------------------------------------------------------|
------------------------------------------------------------------------------|
 .................................................

----10----10-----10----10-----10------10------------------------------10-7----|
-10b---10b---10b----10b---10b------10b---10br-p7-10v----10bvvv-----10b--------|
------------------------------------------------------------------------------|
------------------------------------------------------------------------------|
------------------------------------------------------------------------------|
------------------------------------------------------------------------------|

									(outro)
-10b-10b-10v-------------15----15---------------------------------------------|
---------------/17-17-17----17----17--15b-15r-15v-------12-10-8h10p8-8/7-8-7--|
------------------------------------------------------------------------------|
------------------------------------------------------------------------------|
------------------------------------------------------------------------------|
------------------------------------------------------------------------------|
                                                       slow down

-------------------------------------------------------------------0-----------|
-----7h8p7---------------------------------------------------------0-----------|
-9-7------9-7------------------------------------------------------0-----------|
---------------9-7-5h7-54-5p4-4-2-0-2vv---------------------------2------------|
-------------------------------------------------------------------2-----------|
------------------------------------------/7--5--3--2--3--2--2--0--0vvvvv------|


-----------------0-------------------------------------0---0------------------|
-----------------0-------------------------------------0---0------------------|
----------------------------7br--------------7--2------0----------------------|
----------------------------7br---7/9--------7--2--5---2----------------------|
----------------------------------5/7--------5--0--5---2----------------------|
--------------------------------------0v-----------3b--0----------------------|

            
            
Suggest correction
Creating personal tab
Creating personal tab
You can edit any tab online and save it as your Personal.

You can edit, replace or remove any tab part or add personal notes – all changes will be seen only by you.

Personal tabs can be accessed anytime from any device, even offline.
Learn more »
Give kudos to tab author, rate the tab!
1 2 3 4 5
comments
print report bad tab
1 comment total.
0 reply
guitarpassion 10 Oct 24, 2009 09:55 AM

second solo dont sound right, but i guess i play it too slow, still thanx for this tab...

guest
You may want to rate the tab now too:
select rating
Wanna post a correction for this tab? Suggest correction