Oops, an error
Loading. Please wait.

Back And Forth Again Tab

version 1
version 1

Solo

Whole song

Interactive

3,157 views 6 this week
no commentswrite comment
1 2 3 4 5
please rate
add to favorites
launch autoscroll
font size
0
reset
how to read this tab
guitar tuner
Tab Pro tools
  • play this tab
  • loop segment
  • change instrument
  • show fretboard
  • metronome
×
Best way to learn
"Back And Forth Again"
Autoscroll
slow
fast
+/-
esc
set tempo
stop
Contributor
Back And Forth Again
Slash’s Snakepit

Solo:

                   ~~             ~~             ~~
|-------------------------|--------------------10---|
|--8rb(8)---------7---8h7-|-8--/10---8h10p8/7-------|
|--------7rb(7)-----------|-------------------------|
|---------------7---------|-------------------------|
|-------------------------|-------------------------|
|-------------------------|-------------------------|


|-10b--10b----7-10-7--12---------------15-|-------------------15-----|
|----------10-------------17--15h17h18----|--18b-17--15h17h18----17b-|
|-----------------------------------------|--------------------------|
|-----------------------------------------|--------------------------|
|-----------------------------------------|--------------------------|
|-----------------------------------------|--------------------------|


|-------12------------------------------------|
|--15b-----15-12------------------------------|
|----------------14----12----12h14p12---14p12-|
|-------------------------14------------------|
|---------------------------------------------|
|---------------------------------------------|

                                        ~~~~~~
|-------------------------------------14-------15-14-15-12-15-|
|---15b-15--12-----15b-15—12h15p12----------------------------|
|--------------14------------------14-------------------------|
|-------------------------------------------------------------|
|-------------------------------------------------------------|
|-------------------------------------------------------------|


|-14h15p14p12---14---12h14p12---12----12---------12-------------------------------------|
|-------------15--15----------15--15b---15p12------15p12--------------------------------|
|---------------------------------------------14---------14b--12---14---12h14p12--14-12-|
|----------------------------------------------------------------14--14-----------------|
|---------------------------------------------------------------------------------------|
|---------------------------------------------------------------------------------------|


|---------------------------------------------------------------------------|
|---------------------------------------------------------------------------|
|-14-12-11-12-11h12p11----11------------------------------------------------|
|----------------------14----14-12------------------------------------------|
|---------------------------------14-12-12br--10---12---10-12---10--10-12/--|
|------------------------------------------------12--12-----------12--------|




|--------0-2-3-2h3p2p0---3p0-2p0--0-----------3h5---3-5-7/8-5h7---5-7-|
|------0---------------3---------3--3/5—3h5h7-----7-------------8-----|
|--2b-----------------------------------------------------------------|
|---------------------------------------------------------------------|
|---------------------------------------------------------------------|
|---------------------------------------------------------------------|


|-8/10-7h8----7h8-10/12—8h10h12p10p8------8-7h8p7---7-----10------------------------|
|----------10-----------------------12-10---------10--10b----10rb-8---10---x---8-10-|
|------------------------------------------------------------------9--------9-------|
|-----------------------------------------------------------------------------------|
|-----------------------------------------------------------------------------------|
|-----------------------------------------------------------------------------------|

                  ~~~~                          ~~
|-------------------------------------------------------------|
|-10rb-8---7------------------------------------------------7-|
|--------9---9-9-9-----7---9-7--------------------------7-9---|
|------------------------9-----9-8-7br-5---7---5----7/9-------|
|----------------------------------------7---7----------------|
|-------------------------------------------------------------|


|--------------10----------------------10-----------------10-----------------10------|
|-8p7---7-10/12--12\10-8---10---8-10/12--12\10-8---8-10/12--12\10-8---8-10/12--12\10-|
|-----9------------------9----9------------------9------------------9----------------|
|------------------------------------------------------------------------------------|
|------------------------------------------------------------------------------------|
|------------------------------------------------------------------------------------|


|-----------------12------12-----|-----15---------------------------|
|-8---10---8--/15---15-12----15b-|-15b---15b--15--12-15-15----------|
|---9----9-----------------------|----------------------14b---12----|
|--------------------------------|-------------------------------14-|
|--------------------------------|----------------------------------|
|--------------------------------|----------------------------------|


|------------------------------------|
|----15-15---15--15-15--15-----------|
|-12----14b--14b-14-----14br---12----| 4x
|---------------------------------14-|
|------------------------------------|
|------------------------------------|


|-----------------------15b--|---------15-14/15-14----------------------------|
|----15-15---15--15-15-------|---------------------15--15--15-15--15----------|
|-12----14b--14b-14----------|-------------------------14b-14-----14br-12----|
|----------------------------|---------------------------------------------14-|
|----------------------------|------------------------------------------------|
|----------------------------|------------------------------------------------|

                     ~~
|-----------------------|
|----15-15--15----------|
|-12----14b-14--12-11---| 
|-----------------------|
|-----------------------|
|-----------------------|
comments
We did not receive enough feedback on this tab! Please rate:
print report bad tab
1 2 3 4 5
I want to post or [tab]
guest
You may want to rate the tab now too:
select rating
Please do not post tabs as comments. Select "correction" instead!