Oops, an error
Loading. Please wait.

Beggars And Hangers On Tab

version 1
version 1

Whole song

Interactive

15,641 views 15 this week
5 commentsread comments
1 2 3 4 5
worth learning
x 5
add to favorites
launch autoscroll
font size
0
reset
how to read this tab
guitar tuner
Tab Pro tools
  • play this tab
  • loop segment
  • change instrument
  • show fretboard
  • metronome
×
Best way to learn
"Beggars And Hangers On"
Autoscroll
slow
fast
+/-
esc
set tempo
stop
Contributor
Slashs Snakepit:
Beggars and Hangers On
Its 5 O'Clock Somewhere
tabbed by Luke(destination_hell_666@hotmail.com)
tuning:standard
this is 100% right
intro:
-----
e|-------------------------------------|
b|-------------------------------------|
g|-------------------------------------|
D|-2b-0-------0-------0----------------|
A|------0--2b---0--2b---0--2b-0--------|
E|-------------------------------------|

e|-------------------------------------|
b|-------------------------------------|
g|-------------------------------------|  thats wut it is for the chorus to
D|-2b--0-----0-------0----5/7----------|
A|--------2b---0--2b---0--3/5----------|
E|
comments
print report bad tab
5 comments total. Showing first comments.
0 reply
adriaanb wrote on July 13 2004, 12:00 am

The tab is right but it doesnt sound stron/powerful enough

0 reply
adriaanb wrote on July 13 2004, 12:00 am

It's like this:

D -----------4-------4------4------2-----
A ---4/7--6--4-------4------4------2-----
E --------------7/9-----7/9----7/9--------

That's the first one; the other one just slide double 7 on E and A to 9 on E and A

+3 reply
Februarymelody wrote on November 8 2006, 07:15 pm

Wrong. Wrong, wrong, wrong. Retards.

Wrong because:

1) The guitars are tuned down half a step (as with everything Slash plays).

2) This is slide guitar with a bottleneck.

For these reasons, I disagree with your claim that "this is 100% right". Slash is 100% right. You, on the other hand, are a cock.

I want to post or [tab]
guest
You may want to rate the tab now too:
select rating
Please do not post tabs as comments. Select "correction" instead!