Oops, an error
Loading. Please wait.

Beggars And Hangers On Tab

version 4
version 4

Whole song

Interactive

2,374 views 6 this week
no commentswrite comment
1 2 3 4 5
please rate
add to favorites
launch autoscroll
font size
0
reset
how to read this tab
guitar tuner
Tab Pro tools
  • play this tab
  • loop segment
  • change instrument
  • show fretboard
  • metronome
×
Best way to learn
"Beggars And Hangers On"
Autoscroll
slow
fast
+/-
esc
set tempo
stop
Contributor
Difficulty
Tuning
intermediate
D A D G B E
Hey this my first tab so plz rate good. this tab is just the intro and beggining
chorus, if you spot anything wrong with this tab, email me at 
raphaeld1999@live.com hope you enjoy!

intro: clean channel
E-------------------------------------------------------------------------|
B-------------------------------------------------------------------------|
G-------------------------------------------------------------------------|
D----3b-0------0-----0-------3s2p0-----0-----0---3s5-3s2p0------0------0--|
A-----------3b--0-----0-----------0--3b-0-----0-----------0--3b--0------0-|
D----------------3b----3b-0--------------0-3b--0-3s5--------------3b------|

E-------------------------------------X]
B-------------------------------------3]
G-------------------------------------2]
D----------3s2p0-------5s3s2p0--0-----0]
A-------------0-3s5-----------3b------0]
D--3b-0-3~----------5--------------3b-0]x2


Chorus: Overdrive
E---------------------------------------------------------------------------|
B---------------------------------------------------------------------------|
G---------------------------------------------------------------------------|
D---3s2p0------0-----0-------3s2p0-----0-----0---3s5-3s2p0------0--------0--|
A--------0--3b--0-----0-----------0-3b--0-----0-----------0--3b--0--------0-|
D----------------3b----3b-0--------------3b------3s5--------------3b--------|

E-------------------------------]
B-------------------------------]
G-------------------------------]
D---------3s2p0-------5s3s2p0---]
A--------------0-3s5---------3b-]
D--3-3b-3~-----------5----------]x2


end chorus w\low D chord for effect:
E-X------|
B-3------|
G-2------|
D-0------|
A-0------|
D-0------|

and there you have it hoped you like it play along with the song on youtube i
think there are some mistakes i made but the rest sound good
comments
We did not receive enough feedback on this tab! Please rate:
print report bad tab
1 2 3 4 5
I want to post or [tab]
guest
You may want to rate the tab now too:
select rating
Please do not post tabs as comments. Select "correction" instead!