Oops, an error
Loading. Please wait.

Just Like Anything Bass Tab

473 views 1 this week
no commentswrite comment
1 2 3 4 5
please rate
add to favorites
launch autoscroll
font size
0
reset
guitar tuner
Autoscroll
slow
fast
+/-
esc
set tempo
stop
Help us to improve Ultimate-Guitar.com Take our survey!
×
Author
Slashs Snakepit
Just Like Anything
Ain't Life Grand

 Played by J.Griparic
 Tuning : Eb,Ab,Db,Gb
 Tempo : 95 Bpm 

Intro - Quiet

|---------------|
|---------------| x3
|---------------|
|33333-xx33x3-xx|
>SSSSE SSSSSE SS

|--------------------|
|--------------------| (Threes and fifteens)
|--------------------|
|33333-xx3-3/15-1515\|
>SSSSE SSE S S  E E  

|---------------|
|---------------| x3
|---------------|
|33333-xx33x3-xx|
>SSSSE SSSSSE SS

|---------------|
|--------55x5-xx| 
|---------------|
|33333-xx-------|
>SSSSE SSSSSE SS

|---------------|
|---------------| x3
|---------------|
|33333-xx33x3-xx|
>SSSSE SSSSSE SS

|--------------||
|--------------||
|--------1-123\||
|33333-3-------||
>SSSSE E E SSQ

Heavier Intro/main riff


Verse   Part 1 
|----------------|
|----------------| X8
|-------123-2-123|
|3-3123----------|
>E SSSE SSE E SSS  

|--------------|----------|
|--------------|----------| X2
|--------------|-----x3-32| 
|3-3123\-------|----------|
>E SSSE.____pause____SE SE  

Part 2
|----------------|
|----------------| X4
|--------1112-32-|
|3-123-33--------| 
>E SSE SSSSSE SE 

 Now play four bars of the heavy intro
then repeat verse part one then three bars
of part 2, then play this;

Part 2 Alteration
|------3h4h5~~~||
|--------------||
|--------------||
|3-123---------||
>E SSE S S H

Chorus
|---------------|
|---------------| x3
|---------------|
|33333-xx33x3-xx|
>SSSSE SSSSSE SS

|--------------------|
|--------------------| (Threes and fifteens)
|--------------------|
|33333-xx3-3/15-1515\|
>SSSSE SSE S S  E E  

|---------------|
|---------------| x3
|---------------|
|33333-xx33x3-xx|
>SSSSE SSSSSE SS
 
|---------||
|---------||
|3~~------||
|---------||
>W

Pre-Verse
|----------------|
|----------------| X8
|-------123-2-123|
|3-3123----------|
>E SSSE SSE E SSS  

Verse and Chorus
are the same as before.
Outro is the main riff
repeated until the end.

Key
~ - Slight Vibrato
X - Muted Note
H - Hammer On
P - Pull Off
/ - Slide Down
\ - Slide Up
W - Whole Note-------> These are all Rhythm markings and  
H - Half Note--------> they dictate how long the note they 
Q - Quatre Note------> are placed underneath is held for.
E - Eighth Note------> E.G. A Half note is held for half
S - Sixteenth Note---> of a bar and so on. Same as PowerTab.
Suggest correction
Give kudos to tab author, rate the tab!
1 2 3 4 5
comments
print report bad tab
guest
You may want to rate the tab now too:
select rating
Please do not post tabs as comments. Select "correction" instead!