Oops, an error
Loading. Please wait.

Mean Bone Tab

version 1
version 1

Solo

Whole song

Interactive

2,757 views 6 this week
no commentswrite comment
1 2 3 4 5
please rate
add to favorites
launch autoscroll
font size
0
reset
how to read this tab
guitar tuner
Autoscroll
slow
fast
+/-
esc
set tempo
stop
Help us to improve Ultimate-Guitar.com Take our survey!
×
Slash's Snakepit
Mean Bone (Solo)
Tabbed by Faran Khan
Tuned down half a step (Eb,Bb,Gb,Db,Ab,Eb)


E:|--------------------------------------------------------------------------------|
B:|-/7b~~~-9h12p9---------9--------------------------------------------------------|
G:|--------------11p9-11---9--11p9-----11b-----------------------------------------|
D:|-------------------------------11p9-----11p9-11-11p9--11p9----------------------|
A:|----------------------------------------------------11----11p9-----9---9--------|
E:|--------------------------------------------------------------12p9--12--12-12p9-|


E:|---------------------------------------------------------------------------|
B:|-------------------------14~~~~~~-14-16-17-16h17p16p14--16-16h17p16--14~~~-|
G:|------------------------------------------------------16-----------16------|
D:|---------------------------------------------------------------------------|
A:|----------------9p7--------------------------------------------------------|
E:|-12-(12)/14-12------9p7----------------------------------------------------|


E:|-12-----------9--9----------------------------9^~~~-10-11^-12^-13^-14^-15^-|
B:|----9p12----9-----12p9-----------------------------------------------------|
G:|---------11-----------11brp7---9h11p9----9h11------------------------------|
D:|----------------------------11--------11-----------------------------------|
A:|---------------------------------------------------------------------------|
E:|---------------------------------------------------------------------------|


E:|-15^-15^--16h19p16-----------------------19-18-17-15-17-15-17p15--------|
B:|-------------------17-19-15-17~~~~-19-17------------------------17p15---|
G:|---------------------------------------------------------------------16-|
D:|------------------------------------------------------------------------|
A:|------------------------------------------------------------------------|
E:|------------------------------------------------------------------------|


E:|-10--------------------------------------------------------------12-10~~~~-|
B:|---12p11p10-11-10--9~~~~~~-------8h9-8h9-10--8h9-8h9-10--8h9-8h9-----------|
G:|--------------------------9p7----------------------------------------------|
D:|-----------------------------9p7-------------------------------------------|
A:|---------------------------------------------------------------------------|
E:|---------------------------------------------------------------------------|


E:|-12-12---------------------------------------------------------------|
B:|------15-14h15p14p12-14--12h15--12-12~~~-13^-14^-15^-16^-17^-18^-19^-|
G:|------------------------------14-------------------------------------|
D:|---------------------------------------------------------------------|
A:|---------------------------------------------------------------------|
E:|---------------------------------------------------------------------|
Enjoy
Suggest correction
Give kudos to tab author, rate the tab!
1 2 3 4 5
comments
print report bad tab
guest
You may want to rate the tab now too:
select rating
Wanna post a correction for this tab? Suggest correction