Oops, an error
Loading. Please wait.

Serial Killer Tab

version 2
version 2

Whole song

Interactive

7,507 views 6 this week
no commentswrite comment
1 2 3 4 5
accurate
x 5
add to favorites
launch autoscroll
font size
0
reset
how to read this tab
guitar tuner
Autoscroll
slow
fast
+/-
esc
set tempo
stop
Help us to improve Ultimate-Guitar.com Take our survey!
×
Author
Tuning
D# G# C# F# A# D#
Like all of the Snakepit music, tune down 1/2 a step.

Rhythm			Lead
-----------------/-------------------------------------------------------------|
-----------------/-------------------------------------------------------------|
-----------------/-------------------------------------------------------------|
---x--x--7-------/-----------------------10-9-8-7------------------------------|
---x--x--7-------/--------6-7----6-7-----8--7-6-5------------------------------|
---x--x--5-------/------5------5-----------------------------------------------|

I can't be bothered to write out how many times you should play the above bit
just listen to the CD for that + timing, anyway...

Lead/Rhythm parts						how the rhythm ends
-------------------------------------------------------------/-----------------|
--------------------------------------3---------------5b-----/-----------------|
----------------------------------------1----------------6---/-----------------|
-----6-7---6-7--10-9-8-7/5/7-7-6-5-3--------2----------------/--------3--------|
---5------5-----8--7-6-5/3/5-5-4-3-1-----------4---5---------/------4----------|
-------------------------------------------------5-----------/----5------------|


Again for the rhythm part i'll just write the chord shapes and not the timing etc..

Rhythm						then to the above part again

-------1--------1--------------------------------------------------------------|
--(6)--1--------1--------------------------------------------------------------|
---7---3--5--7--3------5----12-/-10-/-9-/-7--5--3--3---------------------------|
---7---3--5--7--3---3--5---------------------------3---2--7--5--3--2-----------|
---5---1--3--5--1---3--3----10-/-8--/-7-/-5--3--1--1---2--7--5--3--2-----------|
--------------------1----------------------------------0--5--3--1--0-----------|


Lead - played over the top of the above section
				 let ring		    1st ending
------------h---------------------------------------8--------------------------|
-------6-x-5-6--/-8---/6------------------------------6-5--6p5-5---------------|
-------7-x-5-5--/-7---/7---7b--5-7v----------7-----------------7---------------|
-----7-----------------------------------8-------------------------------------|
---5-----------------------------------8-------8-------------------------------|
-------------------------------------6-----6-----6-----------------------------|

2nd ending

---8--------8------------------------------------------------------------------|
-----8-6-8b---8pb-(6)------------------------------8---6-5----8-6-5--8-6-------|
--------------------------5-0----5-0----5---0----5---5-----5--5-5-5--5-5-------|
------------------------3-3-3-3--3-3-3--3-3-3----------------------------------|
-------------------------------------------------------------------------------|
-------------------------------------------------------------------------------|

						then back to main part
-------------------------------------------------------------------------------|
-----6----6-6--6-6-6--6-6-6----------------------------------------------------|
---3---3--5-3--5-3----5-3-------9----------------------------------------------|
-------------------3------3-----9---14-12-10-9---------------------------------|
--------------------------------7---12-10-8--7---------------------------------|
-------------------------------------------------------------------------------|

then.....			 x2			   then the 1st solo
-------------------------------------------------------------------------------|
---------------------6-------6-------------------------------------------------|
-----------------------9-------9-----------------------------------------------|
---7-6-5-3-3-x-5---------10------10---------7-6-5---3---5---5------------------|
---5-4-3-1-1-x-3----------------------------5-4-3---1---2---3------------------|
-------------------------------------------------------------------------------|

see other tab for that solo- the 2nd solo: C5  G5  Ab5

	A5		  x4			B5		 x2

-------------------------------------------------------------------------------|
---17-17-13----------(13)-17--------------16-16-13----------(13)-16------------|
------------14----14-------------------------------14----14--------------------|
---------------14-------------------------------------16-----------------------|
-------------------------------------------------------------------------------|
-------------------------------------------------------------------------------|
						D5   A5 etc + new rhythm
-------------------------------------------------------------------------------|
---19-19-16----------(16)-19--/---22-22-19-------------------------------------|
------------17----17-----------------------20----------------------------------|
---------------19-----------------------------21v------------------------------|
-------------------------------------------------------------------------------|
-------------------------------------------------------------------------------|
1st ending
-------------------------------------------------------------------------------|
------15-17b--pb18p17-18-20-18h20p18p17--18-17h18p17--------15b----------------|
------------------------------------------------------19-17--------------------|
---17--------------------------------------------------------------------------|
-------------------------------------------------------------------------------|
-------------------------------------------------------------------------------|

-------------------------------------------------------------------------------|
------------17h18h20p18p17---------------------15h17h18p17p15------------------|
---14h15h17----------------17p15p14---14h15h17----------------17p15p14---------|
-------------------------------------------------------------------------------|
-------------------------------------------------------------------------------|
-------------------------------------------------------------------------------|
							then back to the start bit
-------------------------------------------------------------------------------|
------------13h15h17p15p13---------------17------------------------------------|
---14h15h17----------------17p15p14--14b----rb14v------------------------------|
-------------------------------------------------------------------------------|
-------------------------------------------------------------------------------|
-------------------------------------------------------------------------------|
2nd ending     this bit just sounds improvised so use the A minor pentatonic scale
		which is shown below (1st position)
------17-20b---------------------------------------------17-(19)-20------------|
---------------------------------------------------17-(19)-20------------------|
---19---------------------------------------(16)-17-19-(20)--------------------|
---------------------------------------17-19-----------------------------19v---|
---------------------------------17-19-----------------------------------------|
---------------------------17-20-----------------------------------------------|
anyway...
-----------------------------------------------------------------------------------|
---15v/17/18/17v-/15-13-12h13p12/10v-----------------------------------------------|
-------------------------------------------------------------------9h10h12-9h10h12-|
-----------------------------------------------------------9h10h12-----------------|
---------------------------------------------7h8h10-7h8h10-------------------------|
--------------------------------------7h8h10---------------------------------------|

------------------------------------------------/15-13-12-13-15/17-17/19-19/20-|
---10h12h13-10h12h13-/-15v-17-18-17v-15/13--12-13------------------------------|
-------------------------------------------------------------------------------|
-------------------------------------------------------------------------------|
-------------------------------------------------------------------------------|
-------------------------------------------------------------------------------|

---20/22-22b-22b-22-22v--------------------------------------------------------|
-----------------------------------20b-18--------------------------------------|
------------------------------------------19v----------------------------------|
-------------------------------------------------------------------------------|
-------------------------------------------------------------------------------|
-------------------------------------------------------------------------------|
Suggest correction
What's this?
You can suggest a correction to this tab. Community and Mods will review your correction and vote to approve or reject it.
comments
print report bad tab
guest
You may want to rate the tab now too:
select rating
Please do not post tabs as comments. Select "correction" instead!