Oops, an error
Loading. Please wait.

She Wants More bass

version 1
version 1

Whole song

Interactive

52 views 1 this week
no commentswrite comment
1 2 3 4 5
3 more votes to show rating
add to favorites
×
Save as Personal and add changes to this tab that will be seen only by you. Learn more ›
×
You can save this tab as Personal to edit and correct it or add notes. All changes will be seen only by you. Learn more »
launch autoscroll
font size
0
reset
guitar tuner
edit
Autoscroll
slow
fast
+/-
esc
set tempo
stop
[Intro]

G|-----------------|-----------------|-----------------|-----------------|
D|-------7---------|-----------------|---7---7---------|-----------------|
A|-0-4-0---0-4-0---|-----------------|-0---0---0-4-0---|-----------------|
D|-----------------|-----------------|-----------------|-----------------|

G|-----------------|-----------------|-----------------|-----------------|
D|-------7---------|-----------------|-----------------|-----------------|
A|-0-4-0---0-4-3\--|-----------------|-0-3-0-2-0-1-0---|-----------------|
D|-----------------|-----------------|-----------------|-----------------|

G|-----------------|-----------------|-----------------|-----------------|
D|-------7---------|-----------------|---7---7---------|-----------------|
A|-0-4-0---0-4-0---|-----------------|-0---0---0-4-0---|-----------------|
D|-----------------|-----------------|-----------------|-----------------|

G|-----------------|-----------------|-----------------|-----------------|
D|-------7---------|-----------------|-----------------|-----------------|
A|-0-4-0---0-4-3\--|-----------------|-10--9---8---7---|-6---5---4---3---|
D|-----------------|-----------------|-----------------|-----------------|

G|-----------------|-----------------|
D|-----------------|-----------------|
A|-2---3---4---5---|-6---7---8---9---|
D|-----------------|-----------------|


[Pre-Verse]

G|-----------------|-----------------|-----------------|-----------------|
D|-----5-----------|---------------5-|---5-------------|-----------------|
A|---------5---4---|-3---3---3p2-----|-----5---4---2---|-----5p3-2h3-2---|
D|-5---------------|-------------5---|-----------------|---------------5-|

G|-----------------|-----------------|-----------------|-----------------|
D|-5-5-------------|---------------5-|---5-----------5-|-----------------|
A|-----5---4---3---|-2---3h5p3-2-0---|-----5---3-2-3---|-----------------|
D|-----------------|-----------------|-----------------|-----------------|


[Verse]

G|-----------------|-----------------|-----------------|-----------------|
D|-----------------|-----------------|-----------------|---5-5--3-3--0-0-|
A|-3---3---3-1-3-1-|-----------------|-3---3---3-1-3-1-|--3--------------|
D|-----------------|-12\-0---3---5---|-----------------|-----------------|

G|-----------------|-----------------|-----------------|-----------------|
D|-----------------|-----------------|-----------------|-----------------|
A|-3---3---3-1-3-1-|-----------------|-3---3---3-1-3-1-|---3---1r--------|
D|-----------------|-12\-0---3---5---|-----------------|-----------------|

G|-----------------|-----------------|-----------------|-----------------|
D|-----5-----------|---------------5-|---5-------------|-----------------|
A|---------5---4---|-3---3---3p2-----|-----5---4---2---|-----5p3-2h3-2---|
D|-5---------------|-------------5---|-----------------|---------------5-|

G|-----------------|-----------------|-----------------|-----------------|
D|-----------------|-----------------|-----------------|---5-5--3-3--0-0-|
A|-3---3---3-1-3-1-|-----------------|-3---3---3-1-3-1-|--3--------------|
D|-----------------|-12\-0---3---5---|-----------------|-----------------|

G|-----------------|-----------------|-----------------|-----------------|
D|-----------------|-----------------|-----------------|-----------------|
A|-3---3---3-1-3-1-|-----------------|-3---3---3-1-3-1-|---3---2---1r----|
D|-----------------|-12\-0---3---5---|-----------------|-----------------|

G|-----------------|-----------------|-----------------|-----------------|
D|-----5-----------|---------------5-|---5-------------|-----------------|
A|---------5---4---|-3---3---3p2-----|-----5---4---2---|-----5p3-2h3-2---|
D|-5---------------|-------------5---|-----------------|---------------5-|


[Chorus]

G|-----------------|-----------------|-----------------|-----------------|
D|-----------------|---------2---5---|-5-5---5---------|---------5-5-----|
A|-----0---2---3---|-2---5-----------|---------3-3---5-|-3-5-3-5---------|
D|-5---------------|-----------------|-----------------|-----------------|

G|-----------------|-----------------|--------------------|-----------------|
D|-----------------|---------2---5---|-5-5-7---9h10p9-7---|-5---------------|
A|-----0---2---3---|-2---5-----------|--------------------|-----7---5---3---|
D|-5---------------|-----------------|--------------------|-----------------|

G|-----------------|-----------------|-----------------|-----------------|
D|-----------------|---------2---5---|-5---3---2-------|-----------------|
A|-----0---2---3---|-2---5-----------|-------------5---|-5---3---2---0---|
D|-5---------------|-----------------|-----------------|-----------------|

G|-----------------|-----------------|-----------------|-----------------|
D|-----------------|---------2---5---|-----------------|-----------------|
A|-----0---2---3---|-2---5-----------|-0-5---0-3-----0-|-2---1---0-------|
D|-5---------------|-----------------|-----------------|-------------5---|

G|-----------------|-----------------|
D|-----------------|-----------------|
A|-0-5---0-3-----0-|-2---3---4---5---|
D|-----------------|-----------------|

G|-----------------|-----------------|-----------------|-----------------|
D|-----5-----------|---------------5-|---5-------------|-----------------|
A|---------5---4---|-3---3---3p2-----|-----5---4---2---|-----5p3-2h3-2---|
D|-5---------------|-------------5---|-----------------|---------------5-|


G|-----------------|-----------------|-----------------|-----------------|
D|-5-5-------------|---------------5-|---5-----------5-|-----------------|
A|-----5---4---3---|-2---3h5p3-2-0---|-----5---3-2-3---|-----------------|
D|-----------------|-----------------|-----------------|-----------------|


[Verse]

G|-----------------|-----------------|-----------------|-----------------|
D|-----------------|-----------------|-----------------|---5-5--3-3--0-0-|
A|-3---3---3-1-3-1-|-----------------|-3---3---3-1-3-1-|--3--------------|
D|-----------------|-12\-0---3---5---|-----------------|-----------------|

G|-----------------|-----------------|-----------------|-----------------|
D|-----------------|-----------------|-----------------|-----------------|
A|-3---3---3-1-3-1-|-----------------|-3---3---3-1-3-1-|---3---2---1r----|
D|-----------------|-12\-0---3---5---|-----------------|-----------------|

G|-----------------|-----------------|-----------------|-----------------|
D|-----5-----------|---------------5-|---5-------------|-----------------|
A|---------5---4---|-3---3---3p2-----|-----5---4---2---|-----5p3-2h3-2---|
D|-5---------------|-------------5---|-----------------|---------------5-|


[Chorus]

G|-----------------|-----------------|-----------------|-----------------|
D|-----------------|---------2---5---|-5-5---5---------|---------5-5-----|
A|-----0---2---3---|-2---5-----------|---------3-3---5-|-3-5-3-5---------|
D|-5---------------|-----------------|-----------------|-----------------|

G|-----------------|-----------------|--------------------|-----------------|
D|-----------------|---------2---5---|-5-5-7---9h10p9-7---|-5---------------|
A|-----0---2---3---|-2---5-----------|--------------------|-----7---5---3---|
D|-5---------------|-----------------|--------------------|-----------------|

G|-----------------|-----------------|-----------------|-----------------|
D|-----------------|---------2---5---|-5---3---2-------|-----------------|
A|-----0---2---3---|-2---5-----------|-------------5---|-5---3---2---0---|
D|-5---------------|-----------------|-----------------|-----------------|

G|-----------------|-----------------|-----------------|-----------------|
D|-----------------|---------2---5---|-----------------|-----------------|
A|-----0---2---3---|-2---5-----------|-0-5---0-3-----0-|-2---1---0-------|
D|-5---------------|-----------------|-----------------|-------------5---|

G|-----------------|-----------------|
D|-----------------|-----------------|
A|-0-5---0-3-----0-|-2---3r----------|
D|-----------------|-----------------|

G|-----------------|-----------------|-----------------|-----------------|
D|-----5-----------|---------------5-|---5-------------|-----------------|
A|---------5---4---|-3---3---3p2-----|-----5---4---2---|-----5p3-2h3-2---|
D|-5---------------|-------------5---|-----------------|---------------5-|


G|-----------------|-----------------|-----------------|-----------------|
D|-5-5-------------|---------------5-|---5-----------5-|-----------------|
A|-----5---4---3---|-2---3h5p3-2-0---|-----5---3-2-3---|-----------------|
D|-----------------|-----------------|-----------------|-----------------|


[Solo]

G|-----------------|-----------------|-----------------|----3--5---------|
D|-----------------|-----------------|-----------------|-3h5-5---3-5-3-0-|
A|-3---3---3---3---|-3---3---3---0---|-3---3---3---3---|-----------------|
D|-----------------|------------6----|-----------------|-----------------|

G|-----------------|-----------------|-----------------|-----8---10-8--------|
D|-----------------|-----------------|-----------------|-8h10-10------10-8-5-|
A|-----------------|-----------------|-----------------|---------------------|
D|-5---5---5---5---|-5---5---5---5---|-5---5---5---5---|---------------------|

G|-----------------|-----------------|-----------------|----3--5---------|
D|-----------------|-----------------|-----------------|-3h5-5---3-5-3-0-|
A|-3---3---3---3---|-3---3---3---0---|-3---3---3---3---|-----------------|
D|-----------------|------------6----|-----------------|-----------------|

G|-----------------|-----------------|-----------------|-----8---10-8--------|
D|-----------------|-----------------|-----------------|-8h10-10------10-8-5-|
A|-----------------|-----------------|-----------------|---------------------|
D|-5---5---5---5---|-3---5---5---5---|-3---5---5---5---|---------------------|


[Chorus]

G|-----------------|-----------------|-----------------|-----------------|
D|-----------------|---------2---5---|-5-5---5---------|---------5-5-----|
A|-----0---2---3---|-2---5-----------|---------3-3---5-|-3-5-3-5---------|
D|-5---------------|-----------------|-----------------|-----------------|

G|-----------------|-----------------|--------------------|-----------------|
D|-----------------|---------2---5---|-5-5-7---9h10p9-7---|-5---------------|
A|-----0---2---3---|-2---5-----------|--------------------|-----7---5---3---|
D|-5---------------|-----------------|--------------------|-----------------|

G|-----------------|-----------------|-----------------|-----------------|
D|-----------------|---------2---5---|-5---3---2-------|-----------------|
A|-----0---2---3---|-2---5-----------|-------------5---|-5---3---2---0---|
D|-5---------------|-----------------|-----------------|-----------------|

G|-----------------|-----------------|-----------------|-----------------|
D|-----------------|---------2---5---|-17--15--14--12--|-10--8---3-------|
A|-----0---2---3---|-2---5-----------|-----------------|-------------3---|
D|-5---------------|-----------------|-----------------|-----------------|

G|-----------------|-----------------|-----------------|-------------------|
D|---------5---3---|-10--8--/17--15--|-17--17------15--|-14------12---12-10|
A|-----3-----------|-----------------|-----------------|-------------------|
D|-5---------------|-----------------|-----------------|-------------------|

G|-----------------|-----------------|-----------------|-----------------|
D|-12--12------12--|-17--17--12--12\-|-----------------|-----------------|
A|---------12------|-----------------|---------1---1-0-|-3---3---5-------|
D|-----------------|-----------------|-2---2-----------|-----------------|

G|-----------------|-----------------|--------------------|-----------------|
D|-2---2-----------|---------3---5---|-10--15--17p15h17p15|-14--12--10--8---|
A|---------5---3---|-3---5-----------|--------------------|-----------------|
D|-----------------|-----------------|--------------------|-----------------|

G|-----------------|-----------------|-----------------|-----------------|
D|-5---3-----------|-5---555-5---5---|-5---555-5---5---|-5---5---5---5---|
A|---------3-------|-----------------|-----------------|-----------------|
D|-------------2---|-----------------|-----------------|-----------------|

G|-----------------|-----------------|
D|-----------------|-----------------|
A|-10--9---8---7---|-6---5---4---3---|
D|-----------------|-----------------|


[Outro]

G|-----------------|-----------------|-----------------|-----------------|
D|-----5-----------|---------------5-|---5-------------|-----------------|
A|---------5---4---|-3---3---3p2-----|-----5---4---2---|-----5p3-2h3-2---|
D|-5---------------|-------------5---|-----------------|---------------5-|

G|-----------------|-----------------|-----------------|-----------------|
D|-5-5-------------|---------------5-|---5-------------|-----------------|
A|-----5---4---3---|-2---3h5p3-2-0---|-----5---4---2---|-----5p3-2h3-2---|
D|-----------------|-----------------|-----------------|---------------5-|

G|-----------------|-----------------|-----------------|-----------------|
D|-----5-----------|---------------5-|---5-------------|-----------------|
A|---------5---4---|-3---3---3p2-----|-----5---4---2---|-----5p3-2h3-2---|
D|-5---------------|-------------5---|-----------------|---------------5-|

G|-----------------|-----------------|-----------------|-----------------|
D|-5-5-------------|---------------5-|---5-----------5-|-----------------|
A|-----5---4---3---|-2---3h5p3-2-0---|-----5---3-2-3---|-----------------|
D|-----------------|-----------------|-----------------|-----------------|

G|-----------------|---------------------|---------------------|-------------------------|
D|-5-5-5-5-5-5-5-5-|-8-8-8-8-10-10-10-10-|-8-8-8-8-10-10-10-10-|-12-12-12-12-15-15-15-15-|
A|-----------------|---------------------|---------------------|-------------------------|
D|-----------------|---------------------|---------------------|-------------------------|

G|-----------------|-----------------|-----------------|-----------------|
D|-17--------------|-15--14--12--14--|--12--10--12--10-|-8---5-----------|
A|-----------------|-----------------|-----------------|-----------------|
D|-----------------|-----------------|-----------------|-----------------|


Here we go again. Hope you enjoy the tab!
Let me know if I can fix it in any way.

************************************

| x   Dead note
| g   Grace note
| (n) Ghost note
| h   Hammer-on
| p   Pull-off
| r   Release
| >   Accented note
| t   Tapping
| b   Bend
| br  Bend release
| pb  Pre-bend
| pbr Pre-bend release
| /   Slide up
| \   Slide down
| ~   Vibrato
| s   Slap
| P   Pop
| PM  Palm mute
| TR  Trill
| N   Tremolo

************************************

            
            
Suggest correction
Creating personal tab
Creating personal tab
You can edit any tab online and save it as your Personal.

You can edit, replace or remove any tab part or add personal notes – all changes will be seen only by you.

Personal tabs can be accessed anytime from any device, even offline.
Learn more »
Give kudos to tab author, rate the tab!
1 2 3 4 5
comments
print report bad tab
guest
You may want to rate the tab now too:
select rating
Wanna post a correction for this tab? Suggest correction