Oops, an error
Loading. Please wait.

Acolyte tab

1,225 views 12 this week
no commentswrite comment
1 2 3 4 5
x 6
add to favorites
×
Save as Personal and add changes to this tab that will be seen only by you. Learn more ›
×
You can save this tab as Personal to edit and correct it or add notes. All changes will be seen only by you. Learn more »
launch autoscroll
font size
0
reset
how to read this tab
guitar tuner
edit
Autoscroll
slow
fast
+/-
esc
set tempo
stop
Author
Difficulty
About this tab version
Initial version. Also cite my source with a youtube video of the artist playing. Was this info helpful? Yes No
--------------------------------
 Slaughter Beach, Dog ~ Acolyte
--------------------------------

Tabbed By: Russcool

Tuning: E Standard

All I did was provide the chords. You can make up your own strumming pattern. 
In a video I saw, he fingerpicks: https://www.youtube.com/watch?v=T6S5wPTICR0&t=185s



INTRO

E|---|
B|---|
G|-6-|
D|-7-|
A|-7-|
E|-5-|



VERSE

  You won't leave the table. She won't leave your mind. Gotta get out of Ohio. Feeling short on time.
E|---------------------------------------------------------------------------------------------------|
B|---------------------------------------------------------------------------------------------------|
G|-6-----------------------------------------------------------------------6---------------------7---|
D|-7-----------------------------------------------------------------------7---------------------7---|
A|-7-----------------------------------------------------------------------5---------------------X---|
E|-5---------------------------------------------------------------------------------------------7---|

  Eyeball your inheritance. Dead stare at the bar. Put back one more, stumble under the stars.
E|---------------------------------------------------------------------------------------------------|
B|-9-------------7----------------------------6-----------------2------------------------------------|
G|-X-------------X----------------------------X-----------------2-----------------------1------------|
D|-9-------------7----------------------------7-----------------X-----------------------2------------|
A|-7-------------5----------------------------5-----------------2-----------------------2------------|
E|--------------------------------------------------------------------------------------0------------|

  We could fly to 

  Ireland, you know I'm good for the ticket. Try to smirk, but you're smiling. Know I'll stick with it. 
E|------------------------------------------------------------------------------------------------------|
B|------------------------------------------------------------------------------------------------------|
G|-6------------------------------------------------------------------6-----------------------------7---|
D|-7------------------------------------------------------------------7-----------------------------7---|
A|-7------------------------------------------------------------------5-----------------------------X---|
E|-5------------------------------------------------------------------------------------------------7---|

  Annie I want you to marry me. We'll wait a few years. I don't mean to frighten you, I just want to be clear.
E|-----------------------------------------------------------------------------------------------------------|
B|-9------------------7--------------------------6----------------------2------------------------------------|
G|-X------------------X--------------------------X----------------------2-------------------------------1----|
D|-9------------------7--------------------------7----------------------X-------------------------------2----|
A|-7------------------5--------------------------5----------------------2-------------------------------2----|
E|------------------------------------------------------------------------------------------------------0----|



BRIDGE

E|---------------------|
B|---------------------|
G|-6----6----7----6----|
D|-7----7----7----7----|
A|-7----5----X----5----|
E|-5---------7---------|



VERSE 

  She's a drink behind 

  you. Wander off to the stairs. Ten bucks for the last game. Suck smoke from the air.
E|------------------------------------------------------------------------------------|
B|------------------------------------------------------------------------------------|
G|-6----------------------------------------------------6-------------------------7---|
D|-7----------------------------------------------------7-------------------------7---|
A|-7----------------------------------------------------5-------------------------X---|
E|-5------------------------------------------------------------------------------7---|

  Man, it cuts like a dull knife when you're young and you're told. 
E|-----------------------------------------------------------------|
B|-9------------------7---------------------------------------6----|
G|-X------------------X---------------------------------------X----|
D|-9------------------7---------------------------------------7----|
A|-7------------------5---------------------------------------5----|
E|-----------------------------------------------------------------|

  Makes sense when you're 

  older. Darling, let's get old.
E|-------------------------------|
B|-2-----------------------------|
G|-2------------------------1----|
D|-X------------------------2----|
A|-2------------------------2----|
E|--------------------------0----|



CHORUS

E|---------------------|
B|-2----2----2---------|
G|-2----2----2---------|
D|-4----2----0---------| x2
A|-----(0)-------------|
E|---------------------|

  I'd say you look tired.
E|----------------------------------|
B|-2------2---------------2---------|
G|-2------2---------------2---------|
D|-4------2---------------0---------| 
A|-------(0)------------------------|
E|----------------------------------|

  Sing my secret choir.
E|----------------------------------|
B|-2------2---------------2---------|
G|-2------2---------------2---------|
D|-4------2---------------0---------| 
A|-------(0)------------------------|
E|----------------------------------|

  Soak my scrapes and sleep tight.
E|-------------------------------------------|
B|-2------2------------------------2---------|
G|-2------2------------------------2---------|
D|-4------2------------------------0---------| 
A|-------(0)---------------------------------|
E|-------------------------------------------|

  Sing, my brave acolyte.
E|----------------------------------|
B|-2-------2--------------2---------|
G|-2-------2--------------2---------|
D|-4-------2--------------0---------| 
A|--------(0)-----------------------|
E|----------------------------------|





            
            
Suggest correction
Creating personal tab
Creating personal tab
You can edit any tab online and save it as your Personal.

You can edit, replace or remove any tab part or add personal notes – all changes will be seen only by you.

Personal tabs can be accessed anytime from any device, even offline.
Learn more »
comments
print report bad tab
guest
You may want to rate the tab now too:
select rating
Wanna post a correction for this tab? Suggest correction