Oops, an error
Loading. Please wait.

Drinks Tab

289 views 30 this week
2 commentsread comments
1 2 3 4 5
x 4
add to favorites
launch autoscroll
font size
0
reset
how to read this tab
guitar tuner
Autoscroll
slow
fast
+/-
esc
set tempo
stop
Help us to improve Ultimate-Guitar.com Take our survey!
×
Author
Difficulty
novice
comin back at ya with another SBD thing. the song is super strummy but I haven't explicitly tabbed that out -
listen to it at https://www.youtube.com/watch?v=9JAzu0s-1qw to get the gist of how to play it and you
should be just fine with the chords given. enjoy! - jowan

slaughterbeach.bandcamp.com
twitter.com/beatsbydog


[Intro]

e|---0-------0-------0-------0--------0----0----0-----0----------|
B|---0-------0-------0-------0--------0----0----0-----0----------|
G|---1-------1-------1-------1--------2/4--4----4\2---1----------|
D|---2-------2-------2-------2--------4/6--6----6\4---2----------|
A|---2-------0-------X-------0--------0----0----0-----0----------|
E|---0---------------2-------------------------------------------|


e|---0-------0-------0-------0--------0--------------------------|
B|---0-------0-------0-------0--------0--------------------------|
G|---1-------1-------1-------1--------2/4------------------------|
D|---2-------2-------2-------2--------4/6------------------------|
A|---2-------0-------X-------0--------0--------------------------|
E|---0---------------2-------------------------------------------|


[Verse]

  Head in your drink / eye on your watch / it's funny the way you see me's been changing daily
e|--------------0-----------------0----------------------4---------------------4-------4-----------------|
B|---2p0--------0-----------------0----------------------5---------------------4-------7-----------------|
G|-------1------1-------2p1-------1----------------------X---------------------5-------5-----------------|
D|--------------2-----------2-----2----------------------6---------------------X-------X-----------------|
A|----------0---0-----------------2----------------------4---------------------6-------6-----------------|
E|-----------------------------0--0--------------------------------------------4-------4-----------------|

  We sit / upon this / bed and wish we could be in love / the way that we want
e|---5-------2/5--------5-----------------------------7-------------------7------------------------------|
B|---5-------2/5--------5-----------------------------9-------------------9------------------------------|
G|---6-------3/6--------5-----------------------------8--------9p8--------7------------------------------|
D|---7-------4/7--------7---------------11--9---------9------------9------9------------------------------|
A|---7-------4/7--------7----------------------11--7--7-------------------7------------------------------|
E|---5-------2/5--------5--------------------------------------------------------------------------------|

  But nothing is ever easy    /   between you and me / Annie, you know that's the way we are
e|-------------------0-----------------------0----------0-------------0----------0-----0-----------------|
B|-------------------2-----------0-----------0----------0-------------0----------0-----0-----------------|
G|-------------------0----0--0h1----1--------1----------4-------------3----------6-----8-----------------|
D|-------------------2----2---------2--------2----------2-------------4----------7-----9-----------------|
A|---------------0---0----0---------2-------------------X-------------4----------7-----9-----------------|
E|---0--2--3--4---------------------0-------------------4-------------2----------5-----7-----------------|


e|---0-------0-------0-------0--------0-----------------------|
B|---0-------0-------0-------0--------0-----------------------|
G|---1-------1-------1-------1--------2/4---------------------|
D|---2-------2-------2-------2--------4/6---------------------|
A|---2-------0-------X-------0--------0-----------------------|
E|---0---------------2----------------------------------------|


The next verse follows the same tab, albeit with the last 2 chords played a little quicker;

End of the night / start of a year / I mumble a resolution, my absolution can wait
For now I'm / cruising slow out of the wake / of 2013
I'm eyeing the mess we left / all the cars piled up / like diamonds shining off the new full moon


[Outro]

  Long December, two week bender / damned Grand Rapids snow, you're alone
e|-----------------------------------0------------------------------0------------------------------|
B|-----4/5--5-------4/5--5-----------0-------------------------0----0------------------------------|
G|-----4----4-------4----4-----------1-------------------------2----2------------------------------|
D|-----X----X-------X----X-----------2-------------------------2----2------------------------------|
A|-----4----4-------3----3-----------X------------------------------2------------------------------|
E|-----------------------------------2------------------------------0------------------------------|

In all your own ways / and I can't relate / but I am trying hard / greasy haired
e|--------------------------------------------0------------------------------0---------------------|
B|-----4/5--5----------------4/5--5-----------0-------------------------0----0---------------------|
G|-----4----4----------------4----4-----------1-------------------------2----2---------------------|
D|-----X----X----------------X----X-----------2-------------------------2----2---------------------|
A|-----4----4----------------3----3-----------X------------------------------2---------------------|
E|--------------------------------------------2------------------------------0---------------------|

      kids have lost their lids    /    searching for warmth in electrical sockets
e|--------------------------------------------0------------------------------0---------------------|
B|-----4/5--5----------------4/5--5-----------0-------------------------0----0---------------------|
G|-----4----4----------------4----4-----------1-------------------------2----2---------------------|
D|-----X----X----------------X----X-----------2-------------------------2----2---------------------|
A|-----4----4----------------3----3-----------X------------------------------2---------------------|
E|--------------------------------------------2------------------------------0---------------------|

    but don't you go that route now darling / there's room for two in my coat pockets
e|--------------------------------------------0------------------------------0---------------------|
B|-----4/5--5----------------4/5--5-----------0-------------------------0----0---------------------|
G|-----4----4----------------4----4-----------1-------------------------2----2---------------------|
D|-----X----X----------------X----X-----------2-------------------------2----2---------------------|
A|-----4----4----------------3----3-----------X------------------------------2---------------------|
E|--------------------------------------------2------------------------------0---------------------|

e|----0---0---0---0-----0---0---0---0-----0---0---0---0-----0---0---0--------------|
B|----0---0---0---0-----0---0---0---0-----0---0---0---0-----0---0---0--------------|
G|----1---2---4---6-----1---2---4---6-----1---2---4---6-----1---2---4--------------|
D|----2---4---6---7-----2---4---6---7-----2---4---6---7-----2---4---6--------------|
A|----0---0---0---0-----0---0---0---0-----0---0---0---0-----0---0---0--------------|
E|---------------------------------------------------------------------------------|


Play this softly:

 Waiting for you / in front of your house / it's funny the way you greet me ain't changed and frankly
e|--------------0------------------0-----------------------4------------------------4---------4----------|
B|---2p0--------0------------------0-----------------------5------------------------4---------7----------|
G|-------1------1-------2p1--------1-----------------------X------------------------5---------5----------|
D|--------------2-----------2------2-----------------------6------------------------X---------X----------|
A|----------0---0------------------2-----------------------4------------------------6---------6----------|
E|-----------------------------0---0------------------------------------------------4---------4----------|


   I feel alright - alright.
e|---5-------5-------0--------------------------------------------|
B|---5-------5-------0--------------------------------------------|
G|---6-------5-------1--------------------------------------------|
D|---7-------7-------2--------------------------------------------|
A|---7-------7-------2--------------------------------------------|
E|---5-------5-------0--------------------------------------------|


************************************

| h  Hammer-on
| p  Pull-off
| /  Slide up
| \  Slide down
| X  dead note

************************************
Suggest correction
comments
print report bad tab
2 comments total.
0 reply
g13thompson 10 Oct 10, 2016 10:56 PM

awesome tab dude

0 reply
StackProne 90 Nov 26, 2016 10:09 AM

keep these SBD tabs coming bro! ceebs learning them myself hahaha but for real they're spot on

guest
You may want to rate the tab now too:
select rating
Wanna post a correction for this tab? Suggest correction