Oops, an error
Loading. Please wait.

Toronto Mug tab

205 views 12 this week
no commentswrite comment
1 2 3 4 5
3 more votes to show rating
add to favorites
×
Save as Personal and add changes to this tab that will be seen only by you. Learn more ›
×
You can save this tab as Personal to edit and correct it or add notes. All changes will be seen only by you. Learn more »
launch autoscroll
font size
0
reset
how to read this tab
guitar tuner
edit
Autoscroll
slow
fast
+/-
esc
set tempo
stop
About this tab version
Not 100% accurate but close enough. Tab includes repetition and lyric snippets to make it easier to match up what needs to be played when. Was this info helpful? Yes No
Slaughter Beach, Dog - "Toronto Mug"
Tuning: FACGCE 
Starting from E standard (EADGBE): 
    tune low E and B strings up one half step
    tune D string down two half steps

Album version uses capo on 4th but live versions may vary.

You're gonna wanna fingerpick this song. My recommendation is
thumb: 6th string (tuned to F)
index finger: 5th (A) and 4th (low C) strings 
middle finger: 3rd (G) and 2nd (high C) strings.
ring and pinky: not used, anchor on 1st (e) string.  

[Verse] 
1: "You're in the hallway..."            "The other on..."
2: "I'm in the hallway..."               "Scared to death..."
3: "Meet in the foyer..."                "But you make..."
E|-----------------------------------|--|-----------------|
C|-2p0-------------------------------|--|-----2---------0-|
G|-----0h4p0-----0-------------------|--|---0---0-0--0h2--|
C|------------0h2-2p0-h4p0-h4p0-h2p0-|x3|-----------------|  x3
A|-----------------------------------|--|-----------------| 
F|-0---------------------------------|--|--2-2-2-2--1-----|

[Chorus] 
1: "Dumb luck, I thought"           "Toronto mug your father bought."
2: "You're on hands and knees"      "Waiting for your favorite DVDs."
3: "I lied,"                 "saying I saw Annie Hall when I was 12."
E|---------------------------------|---------------------------------|
C|-------------------------------0-|------------0--------------------|
G|-------4-------0-------4---------|---0---2-------2---0-------0-----|
C|---0-------0-------0-------0-----|-----------------------4-------0-| x3
A|---------------------------------|---------------------------------|
F|-0---0---0---0---0---0---0---0---|-2---2---2---2---2---2---2---2---|

E|---------------------------------|
C|---------------------------------|
G|---------------0-----------------|
C|---0---4---0-------0---4---0---0-|
A|---------------------------------|
F|-3---3---3---3---3---3---3---3---|

"But I only remember the first part now."
E|------------0~---|
C|------------0~---|
G|------------0~---|
C|--4~---4~---4~---|
A|--3~---3~---3~---|
F|--2~---1~---0~---|

----
h - hammer on
p - pull-off
~ - hold
Suggest correction
Creating personal tab
Creating personal tab
You can edit any tab online and save it as your Personal.

You can edit, replace or remove any tab part or add personal notes – all changes will be seen only by you.

Personal tabs can be accessed anytime from any device, even offline.
Learn more »
Give kudos to tab author, rate the tab!
1 2 3 4 5
comments
print report bad tab
guest
You may want to rate the tab now too:
select rating
Wanna post a correction for this tab? Suggest correction