Oops, an error
Loading. Please wait.

Your Cat tab

1,072 views 75 this week
6 commentsread comments
1 2 3 4 5
x 7
add to favorites
×
Save as Personal and add changes to this tab that will be seen only by you. Learn more ›
×
You can save this tab as Personal to edit and correct it or add notes. All changes will be seen only by you. Learn more »
launch autoscroll
font size
0
reset
how to read this tab
guitar tuner
edit
Autoscroll
slow
fast
+/-
esc
set tempo
stop
I wrote the two guitar parts on the same line. the chords are one guitar and the lead is the other. 
The lead part sounds like its being played with a slide.

[Intro]
e|-0----------------------|------------------------|-0----------------------|------------------------|
B|-1----------------------|------------------------|-1----------------------|------------------------|
G|-0---------4-5--7-----9-|------------------------|-2---------9-10--10---5-|------------------------|
D|-2----------------------|------------------------|-2----------------------|------------------------|
A|-3----------------------|------------------------|-0----------------------|------------------------|
E|------------------------|------------------------|------------------------|------------------------|

e|-----------8-7--3-----5-|-------------------8----|-4----------------------|------------------------|
B|------------------------|------------------------|------------------------|------------------------|
G|-2----------------------|------------------------|-1----------------------|------------------------|
D|-3----------------------|------------------------|-3----------------------|------------------------|
A|-3----------------------|------------------------|-3----------------------|------------------------|
E|-1----------------------|------------------------|-1----------------------|------------------------|

e|-0----------------------|------------------------|-0--------12-10--10---12|------------------12----|
B|-1----------------------|------------------------|-1----------------------|------------------------|
G|-0---------4-5--7-----9-|------------------------|-2----------------------|------------------------|
D|-2----------------------|------------------------|-2----------------------|------------------------|
A|-3----------------------|------------------------|-0----------------------|------------------------|
E|------------------------|------------------------|------------------------|------------------------|

e|-8----------------------|-------------------3----|-7----------------------|------------------------|
B|------------------------|------------------------|------------------------|------------------------|
G|-2----------------------|------------------------|-4----------------------|------------------------|
D|-3----------------------|------------------------|-5----------------------|------------------------|
A|-3----------------------|------------------------|-5----------------------|------------------------|
E|-1----------------------|------------------------|-3----------------------|------------------------|

[Verse]
           C   
She smoked 100s when I met her
             G  
She tried to quit before she left me
           Dm
I'm not so sure if that's important
           F               G
Free association gets me dizzy
                      C  
They ask, "What's the reason for your appointment?"
              G
I try to come up with something vague
                Dm
She asks if I'm going to the party
               F               G
I tell her I'm going to the party

[Chorus]
               Am 
It's so hot by noon I just get queasy
               F
It's so hot by 2 I stay inside
             C
I try to put down a cup of coffee
                     G               E/G#
He asks how much I'm drinking and I lie
                Am
But doctors are always trying to tell you
               F
Some torturous way to live your life
                   C
It's not like they know everything ever
         F                 G
Hey man, I went to college too

[Solo]
(chords during the solo are the same as the intro - C Am F Fm C Am F G)
e|------------------------------------------------|-------------------------------------------5----|
B|-------------5--3-----3--------------5--3-------|-------------------------------------5----------|
G|-5--------5--------5-----5--------5--------5--4-|-2-------0-2-4-------2-4-5-------4-5------------|
D|------------------------------------------------|------------------------------------------------|
A|------------------------------------------------|------------------------------------------------|
E|------------------------------------------------|------------------------------------------------|

e|-------------------5----------------------------|------------------------------------------------|
B|-8--------------8--------5-----------------5----|-6-----------5----------------------------------|
G|------------------------------------------------|-------------------------7b~~~~~~~~~------------|
D|------------------------------------------------|------------------------------------------------|
A|------------------------------------------------|------------------------------------------------|
E|------------------------------------------------|------------------------------------------------|

e|-------------------------------------8--7-----7-|-------------------------------------12---------|
B|-------------5--3-----3--8--------8--------10---|-10------8-10-12----10-12-13----12-13------10---|
G|-5--------5--------5----------------------------|------------------------------------------------|
D|------------------------------------------------|------------------------------------------------|
A|------------------------------------------------|------------------------------------------------|
E|------------------------------------------------|------------------------------------------------|

e|-------------------------8-----------------7----|-8-----------10----------12---------------------|
B|-8--------------8--10------------------10-------|------------------------------------------------|
G|------------------------------------------------|------------------------------------------------|
D|------------------------------------------------|------------------------------------------------|
A|------------------------------------------------|------------------------------------------------|
E|------------------------------------------------|------------------------------------------------|

[Verse]
               C
But all of the kids I met on campus
            G
Are settled down beside the sea
            Dm
Some days I wish that I could be that
               F                    G
Sometimes I forget to spit out the seeds
             C
I'll make it through this if it kills me
            G
And when it kills me I'll come back
           Dm
Jesus will make me a disciple
               F               G
Or maybe he'll let me be your cat
 
[Chorus]
             Am
I wait to be led into temptation
           F
As I lay alone across the street
             C
Catherine is smoking pot above me
           G             E/G#
Watching Hellraiser on tv
            Am
Tomorrow I'm driving to Chicago
             F
Tonight I am kneeling from the pew
            C      Dm      Em
Still doing all I can to understand
  F               G
One more erotic nightmare about you

[Outro]
(keyboard plays the intro theme over these chords)
C Am F Fm
C Am F Fm
C

            
            
Suggest correction
Creating personal tab
Creating personal tab
You can edit any tab online and save it as your Personal.

You can edit, replace or remove any tab part or add personal notes – all changes will be seen only by you.

Personal tabs can be accessed anytime from any device, even offline.
Learn more »
comments
print report bad tab
6 comments total. Showing first comments.
+1 reply
jwp4594 10 Jul 22, 2017 06:37 PM

How exactly are you playing E/G#? I can't seem to come up with something that sounds good.

0 reply
gothmonkey 331 Jul 30, 2017 03:15 PM

i play it from low to high 4764xx

+1 reply
mmiller95 10 Aug 01, 2017 11:35 AM

I've been playing it as 4XX033, not sure if that's right or not though.

guest
You may want to rate the tab now too:
select rating
Wanna post a correction for this tab? Suggest correction