Oops, an error
Loading. Please wait.

Stellar Fungk Bass Tab

803 views 1 this week
1 commentread comment
1 2 3 4 5
please rate
add to favorites
launch autoscroll
font size
0
reset
guitar tuner
Autoscroll
slow
fast
+/-
esc
set tempo
stop
Help us to improve Ultimate-Guitar.com Take our survey!
×
Author
Difficulty
novice
standard tuning
E,A,D,G

LISTEN TO THE SONG FOR TIMING

G-------------------------------|
D-------------------------------|
A-------------------------------|
E-12/--3-6--1-1---3-6-0-0-1-1-3-| REPEAT FOR MOST OF THE SONG

IMPROVISE WITH SLIDES ON THE E STRING OR A STRING

THERE ISN'T BASS DURING THE GUITAR FILLS

G--------------------------------|
D--------------------------------|
A--------------------------------|
E-0-1-1-3-6--1-1--3-6-0-0-1-1-3--|

3:27
G---------------|
D---------------|
A--------1------|
E-1-1-0-1--1-1--|

GUITAR SOLO....DO BASS RIFF ALL THE WAY THROUGH
Suggest correction
Give kudos to tab author, rate the tab!
1 2 3 4 5
comments
print report bad tab
1 comment total.
0 reply
JSears11 52 wrote on November 11 2008, 11:41 am

THE PART AT 3:27 IS ACTUALLY

A--------1------
E-3-3-0-1--1-1--

guest
You may want to rate the tab now too:
select rating
Please do not post tabs as comments. Select "correction" instead!