Oops, an error
Loading. Please wait.

Cheer Up London Tab

version 2
version 2

Whole song

175 views 9 this week
no commentswrite comment
1 2 3 4 5
3 more votes to show rating
add to favorites
launch autoscroll
font size
0
reset
how to read this tab
guitar tuner
Autoscroll
slow
fast
+/-
esc
set tempo
stop
Help us to improve Ultimate-Guitar.com Take our survey!
×
Author
Difficulty
Tuning
novice
B F# B E G# C#
Laurie plays the song on a bass, but I've managed to get it as close as possible to the sound he creates.
The whole song is essentially the same riff but with slight variations in each section.


[Verse 1]

   Put another 0 in your paycheck...
C#|--------------------------------------------------------------------|
G#|--------------------------------------------------------------------|
E |--------------------------------------------------------------------|
B |--------------------------------------------------------------------|
F#|--------2-2--------222-0-0-----------2-2--------222-0-0-------------|
B |--0-2---------0-2--------------0-2---------0-2----------------------|

C#|------------------------------------------------------xxx-xx--------|
G#|------------------------------------------------------xxx-xx--------|
E |------------------------------------------------------xxx-xx--------|
B |------------------------------------------------------xxx-xx--------|
F#|--------2-2--------222-0-0-----------2-2--------------xxx-xx--------|
B |--0-2---------0-2--------------0-2---------0-2--------xxx-xx--------|(x2)
 

[Chorus]

You're dead, already...
C#|--------------------------------------------------------------------|
G#|--------------------------------------------------------------------|
E |--------------------------------------------------------------------|
B |--------------------------------------------------------------------|
F#|--------2-2------------222-0-0-----------2-2------------222-0-0-----|
B |--0-2---------0h2p0h2--------------0-2---------0h2p0h2--------------|

C#|------------------------------------------------------xxx-xx--------|
G#|------------------------------------------------------xxx-xx--------|
E |------------------------------------------------------xxx-xx--------|
B |------------------------------------------------------xxx-xx--------|
F#|--------2-2------------222-0-0-----------2-2----------xxx-xx--------|
B |--0-2---------0h2p0h2--------------0-2---------0-2----xxx-xx--------|


[Verse 2]

Put another 0 in your paycheck...
C#|--------------------------------------------------------------------|
G#|--------------------------------------------------------------------|
E |--------------------------------------------------------------------|
B |-------------------------------------------------------0------------|
F#|--------2-2--------222-0-0-----------2-2---0-0-------2---2----------|
B |--0-2---------0-2------------0-2-------------------4----------------|

C#|------------------------------------------------------xxx-xx--------|
G#|------------------------------------------------------xxx-xx--------|
E |------------------------------------------------------xxx-xx--------|
B |------------------------------------------------------xxx-xx--------|
F#|--------2-2--------222-0-0-----------2-2--------------xxx-xx--------|
B |--0-2---------0-2--------------0-2---------0-2--------xxx-xx--------|  
 

[Chorus]

You're dead, already...
C#|--------------------------------------------------------------------|
G#|--------------------------------------------------------------------|
E |--------------------------------------------------------------------|
B |--------------------------------------------------------------------|
F#|--------2-2------------222-0-0-----------2-2------------222-0-0-----|
B |--0-2---------0h2p0h2--------------0-2---------0h2p0h2--------------|

C#|------------------------------------------------------xxx-xx--------|
G#|------------------------------------------------------xxx-xx--------|
E |------------------------------------------------------xxx-xx--------|
B |------------------------------------------------------xxx-xx--------|
F#|--------2-2------------222-0-0-----------2-2----------xxx-xx--------|
B |--0-2---------0h2p0h2--------------0-2---------0-2----xxx-xx--------|


[Verse 3]

Cheer up London...
C#|--------------------------------------------------------------------|
G#|--------------------------------------------------------------------|
E |--------------------------------------------------------------------|
B |-------------------------------------------------------0------------|
F#|--------2-2--------222-0-0-----------2-2---0-0-------2---2----------|
B |--0-2---------0-2------------0-2-------------------4----------------|(x3)

C#|------------------------------------------------------xxx-xx--------|
G#|------------------------------------------------------xxx-xx--------|
E |------------------------------------------------------xxx-xx--------|
B |------------------------------------------------------xxx-xx--------|
F#|--------2-2--------222-0-0-----------2-2--------------xxx-xx--------|
B |--0-2---------0-2--------------0-2---------0-2--------xxx-xx--------|  


[Chorus]

You're dead, already...
C#|--------------------------------------------------------------------|
G#|--------------------------------------------------------------------|
E |--------------------------------------------------------------------|
B |--------------------------------------------------------------------|
F#|--------2-2------------222-0-0-----------2-2------------222-0-0-----|
B |--0-2---------0h2p0h2--------------0-2---------0h2p0h2--------------|

C#|------------------------------------------------------xxx-xx--------|
G#|------------------------------------------------------xxx-xx--------|
E |------------------------------------------------------xxx-xx--------|
B |------------------------------------------------------xxx-xx--------|
F#|--------2-2------------222-0-0-----------2-2----------xxx-xx--------|
B |--0-2---------0h2p0h2--------------0-2---------0-2----xxx-xx--------|


[Outro]

C#|--------------------------------------------------------------------|
G#|--------------------------------------------------------------------|
E |--------------------------------------------------------------------|
B |-------------------------------------------------------0------------|
F#|--------2-2--------222-0-0-----------2-2---0--0------2---2----------|
B |--0-2---------0-2------------0-2-------------------4----------------|(x2)

C#|------------------------------------------------------xxx-xx--------|
G#|------------------------------------------------------xxx-xx--------|
E |------------------------------------------------------xxx-xx--------|
B |------------------------------------------------------xxx-xx--------|
F#|--------222--------222-0-0-----------222--------------xxx-xx--------|
B |----2---------0-2--------------0-2---------0-2--------xxx-xx--------| 


************************************

| x  Dead note
| h  Hammer-on
| p  Pull-off

************************************
Suggest correction
Give kudos to tab author, rate the tab!
1 2 3 4 5
comments
print report bad tab
guest
You may want to rate the tab now too:
select rating
Wanna post a correction for this tab? Suggest correction