Oops, an error
Loading. Please wait.

Feed The Mantaray tab

version 2
version 2

Whole song

by Slaves
4,202 views 6 this week
no commentswrite comment
1 2 3 4 5
x 6
add to favorites
×
Save as Personal and add changes to this tab that will be seen only by you. Learn more ›
×
You can save this tab as Personal to edit and correct it or add notes. All changes will be seen only by you. Learn more »
launch autoscroll
font size
0
reset
how to read this tab
guitar tuner
edit
Autoscroll
slow
fast
+/-
esc
set tempo
stop
Author
Difficulty
Artist: Slaves
Song: Feed The Mantaray
E-mail: shaunus123@hotmail.com
Tuning: Standard
 
[Main Riff]
(Played during intro, verse and outro)

e|-------------------|        |----------------|
B|-------------------|        |----------------|
G|-------------------|  x3    |--x-7-6-x-10-9--|
D|--4-x-7-x-10-9-----|        |--x-7-6-x-10-9--|
A|--4-x-7-x-10-9-----|        |--x-5-4-x-8--7--|
E|--2-x-5-x-8--7-----|        |----------------|

[Pre-Chorus 1]
e|--------------------|       |--------------------|       
B|--------------------|       |--------------------|        
G|------3-3-3-3-3-3---|  x3   |--4/5---------------|  (Repeat once)     
D|--4/5-3-3-3-3-3-3---|       |--4/5---------------|       
A|--4/5---------------|       |--2/3-3-3-3-3-3-3---|       
E|--2/3---------------|       |------3-3-3-3-3-3---|       
        N.H.+++++++                  N.H.+++++++ 

e|-------------------------------|       |----------------------------------|
B|-------------------------------|       |----------------------------------|
G|--7-7-7-7-7-6-x----------------|  x2   |--7-7-7-7-7-6-x-9-9-9-9-9-9-9-9---|
D|--7-7-7-7-7-6-x-4-4-4-4-4-4-4--|       |--7-7-7-7-7-6-x-------------------|
A|--5-5-5-5-5-4-x-4-4-4-4-4-4-4--|       |--5-5-5-5-5-4-x-7-7-7-7-7-7-7-7---|
E|----------------2-2-2-2-2-2-2--|       |----------------------------------|
  PM---------       -----------

[Chorus 1]
(Main riff variation)
e|-------------------|        |-------------------|
B|-------------------|        |-------------------|
G|-------------------|  x3    |--9-9-9-9-9-9-9-9--|  (Repeat once)
D|--4-x-7-x-10-9-----|        |-------------------|
A|--4-x-7-x-10-9-----|        |--7-7-7-7-7-7-7-7--|
E|--2-x-5-x-8--7-----|        |-------------------|

(Repeat Main riff for verse 2)

(Repeat pre-chorus with added ending)
e|---------------------------|
B|---------------------------|
G|--10-10-10-10-10-10-10-10--|
D|---------------------------|
A|--8--8--8--8--8--8--8--8---|
E|---------------------------|

[Chorus 2]
e|-------------------|        |----------------|
B|-------------------|        |----------------|
G|-------------------|  x3    |--x-7-6-x-10-9--| (Repeat once)
D|--4-x-7-x-10-9-----|        |--x-7-6-x-10-9--|
A|--4-x-7-x-10-9-----|        |--x-5-4-x-8--7--|      
E|--2-x-5-x-8--7-----|        |----------------|

e|-------------------|        |-------------------|
B|-------------------|        |-------------------|
G|-------------------|  x3    |--9-9-9-9-9-9-9-9--| (Repeat once)
D|--4-x-7-x-10-9-----|        |-------------------|
A|--4-x-7-x-10-9-----|        |--7-7-7-7-7-7-7-7--|
E|--2-x-5-x-8--7-----|        |-------------------|

[Outro]
(Main riff twice but let chords ring,
Then finally) 
e|----9-9-9---------------|
B|----------12--10-7~~\---|
G|------------------------|
D|------------------------|
A|------------------------|
E|------------------------|

************************************

| x   Dead note
| /   Slide up
| PM  Palm mute

************************************

            
            
Suggest correction
Creating personal tab
Creating personal tab
You can edit any tab online and save it as your Personal.

You can edit, replace or remove any tab part or add personal notes – all changes will be seen only by you.

Personal tabs can be accessed anytime from any device, even offline.
Learn more »
comments
print report bad tab
guest
You may want to rate the tab now too:
select rating
Wanna post a correction for this tab? Suggest correction