Oops, an error
Loading. Please wait.

Fuck The Hi-Hat Tab

304 views 30 this week
no commentswrite comment
1 2 3 4 5
x 3
add to favorites
launch autoscroll
font size
0
reset
how to read this tab
guitar tuner
Autoscroll
slow
fast
+/-
esc
set tempo
stop
Help us to improve Ultimate-Guitar.com Take our survey!
×
Author
Difficulty
intermediate
Fuck The Hi-Hat by Slaves
A song off the new album, lots of fun to play. 
I worked this out by ear so corrections are welcome!

[Verse]
  Fuck the hi-hat fuck the hi-hat
e|------------------------------------------------------------------|
B|------------------------------------------------------------------|
G|------------------------------------------------------------------|
D|----------------------------------7-7-7-7-7-7-7-7-7-7-7-7-7-7-7-7-|
A|----------------------------------7-7-7-7-7-7-7-7-7-7-7-7-7-7-7-7-|
E|----------------------------------5-5-5-5-5-5-5-5-5-5-5-5-5-5-5-5-|

  Fuck the hi-hat fuck the hi-hat
e|------------------------------------------------------------------|
B|------------------------------------------------------------------|
G|------------------------------------------------------------------|
D|-7--------------------------------7-7-7-7-7-7-7-7-7-7-7-7-7-7-7-7-| X3
A|-7--------------------------------7-7-7-7-7-7-7-7-7-7-7-7-7-7-7-7-|
E|-5--------------------------------5-5-5-5-5-5-5-5-5-5-5-5-5-5-5-5-|



[Solo]
  Laurie!
e|---------------------------------------------------------------------------|
B|----------5---5--5---5---5---5---------------------------------------------|
G|----------7b--7b-7b--7b--7b--7b-7br-5--------------------------------------|
D|-------------------------------------------7-7-7-7-7-7-7-7-7-7-7-7-7-7-7-7-|
A|-------------------------------------------7-7-7-7-7-7-7-7-7-7-7-7-7-7-7-7-|
E|-------------------------------------------5-5-5-5-5-5-5-5-5-5-5-5-5-5-5-5-|

e|---------------------------------------------------------------------------|
B|----------5---5--5---5---5---5-------6-------------------------------------|
G|----------7b--7b-7b--7b--7b--7b-7brp5--------------------------------------|
D|-------------------------------------------7-7-7-7-7-7-7-7-7-7-7-7-7-7-7-7-|
A|-------------------------------------------7-7-7-7-7-7-7-7-7-7-7-7-7-7-7-7-|
E|-------------------------------------------5-5-5-5-5-5-5-5-5-5-5-5-5-5-5-5-|
                                  
e|---------------------------------------------------------------------------|
B|----------5---5--5---5-----------------------------------------------------|
G|----------7b--7b-7b--7b--7[5-5-5]-5----------------------------------------|
D|---------------------------------------7-7-7-7-7-7-7-7-7-7-7-7-7-7-7-7-----|
A|---------------------------------------7-7-7-7-7-7-7-7-7-7-7-7-7-7-7-7-----|
E|---------------------------------------5-5-5-5-5-5-5-5-5-5-5-5-5-5-5-5-----|  
(I'm not too sure about this bit)
e|-------------------------7-5--7-5------------------------------------------|
B|----------5---5--5---5---7-5-----------------------------------------------|
G|----------7b--7b-7b--7b----------------------------------------------------|
D|--------------------------------------7-7-7-7-7-7-7-7-7-7-7-7-7-7-7-7------|
A|--------------------------------------7-7-7-7-7-7-7-7-7-7-7-7-7-7-7-7------|
E|--------------------------------------5-5-5-5-5-5-5-5-5-5-5-5-5-5-5-5------|

[Outro]
  Fuck the hi-hat fuck the hi-hat      Don't need it
e|---------------------------------------------------------------------------|
B|---------------------------------------------------------------------------|
G|---------------------------------------------------------------------------|
D|-7------------------------------7------------------------------------------|
A|-7------------------------------7------------------------------------------|
E|-5------------------------------5------------------------------------------|



************************************

|[n] Staccato
| p   Pull-off
| b   Bend
| br  Bend release

************************************
Suggest correction
Give kudos to tab author, rate the tab!
1 2 3 4 5
comments
print report bad tab
guest
You may want to rate the tab now too:
select rating
Wanna post a correction for this tab? Suggest correction