Oops, an error
Loading. Please wait.

Live Like An Animal Tab

226 views 15 this week
no commentswrite comment
1 2 3 4 5
2 more votes to show rating
add to favorites
launch autoscroll
font size
0
reset
how to read this tab
guitar tuner
Autoscroll
slow
fast
+/-
esc
set tempo
stop
Help us to improve Ultimate-Guitar.com Take our survey!
×
Author
Difficulty
novice
The intro repeats all the way through the verses

[Intro]

 PM-----------------------------------------------------------------

e|---------------------------------------------------------------------------|
B|---------------------------------------------------------------------------|
G|---------------------------------------------------------------------------|
D|---------------------------------------------------------------------------|
A|-------0-2-0----------0-2-0----------0-2-0----------0-2-0------------------|
E|--2--2-------2-0-2--2-------2-0-2--2-------2-0-3--3-------2-0-2------------|

 PM--------------------------------------------------

e|---------------------------------------------------------------------------|
B|---------------------------------------------------------------------------|
G|---------------------------------------------------------------------------|
D|---------------------------------------------------------------------------|
A|-------0-2-0----------0-2-0----------0-2-0----------0-2--2-----------------|
E|--2--2-------2-0-2--2-------2-0-2--2-------2-0-3--3------------------------|



************************************

| PM  Palm mute

************************************
Suggest correction
Give kudos to tab author, rate the tab!
1 2 3 4 5
comments
print report bad tab
guest
You may want to rate the tab now too:
select rating
Wanna post a correction for this tab? Suggest correction