Oops, an error
Loading. Please wait.

Ok Tab

97 views 18 this week
no commentswrite comment
1 2 3 4 5
2 more votes to show rating
add to favorites
launch autoscroll
font size
0
reset
how to read this tab
guitar tuner
Autoscroll
slow
fast
+/-
esc
set tempo
stop
Help us to improve Ultimate-Guitar.com Take our survey!
×
Author
Difficulty
intermediate
About this tab version
Whole song is played with a shuffle-like rhythm. Was this info helpful? Yes No
[Intro]

e|---------------------------------------------------------------------------|
B|---------------------------------------------------------------------------|
G|---------------------------------------------------------------------------|
D|-6-6-6-6-----------6-6-6-6-----------6-6-6-6-------------------------------|
A|-4-4-4-4--5-5-5-5--4-4-4-4--5-5-5-5--4-4-4-4--5-5-5-5--4-4-4-4--2-2-2-2----|
E|----------3-3-3-3-----------3-3-3-3-----------3-3-3-3--2-2-2-2--0-0-0-0----|x2


[Verse]
  PM---------------------------------------------------
e|---------------------------------------------------------------------------|
B|---------------------------------------------------------------------------|
G|---------------------------------------------------------------------------|
D|-6-6-6-6-----------6-6-6-6-----------6-6-6-6-------------------------------|
A|-4-4-4-4--5-5-5-5--4-4-4-4--5-5-5-5--4-4-4-4--5-5-5-5--4-4-4-4--2-2-2-2----|
E|----------3-3-3-3-----------3-3-3-3-----------3-3-3-3--2-2-2-2--0-0-0-0----|

  PM---------------------------------------------------
e|---------------------------------------------------------------------------|
B|---------------------------------------------------------------------------|
G|---------------------------------------------------------------------------|
D|-6-6-6-6-----------6-6-6-6-----------6-6-6-6-------------------------------|
A|-4-4-4-4--5-5-5-5--4-4-4-4--5-5-5-5--4-4-4-4--5-5-5-5--4-4-4-4--2-2-2-2----|
E|----------3-3-3-3-----------3-3-3-3-----------3-3-3-3--2-2-2-2--0-0-0-0----|


[Chorus]

e|---------------------------------------------------------------------------|
B|---------------------------------------------------------------------------|
G|---------------------------------------------------------------------------|
D|-------2-------------------------2-----------------------------------------|
A|-4-2-4---2-4--4-2-4-2-0-0--4-2-4---2-4-2-2-2-2-----------------------------|
E|---------------------------------------------------------------------------|

e|---------------------------------------------------------------------------|
B|---------------------------------------------------------------------------|
G|---------------------------------------------------------------------------|
D|-------2-------------------------2-----------------------------------------|
A|-4-2-4---2-4--4-2-4-2-0-0--4-2-4---2-4-2-2-2-2-2-2-2-2--2-0----------------|
E|------------------------------------------------------------3-2------------|

[Verse]
 
 PM---------------------------------------------------
e|---------------------------------------------------------------------------|
B|---------------------------------------------------------------------------|
G|--------------------------------5b/----------------------------------------|
D|-6-6-6-6-----------6-6-6-6-----------6-6-6-6-------------------------------|
A|-4-4-4-4--5-5-5-5--4-4-4-4--5--------4-4-4-4--5-5-5-5--4-4-4-4--2-2-2-2----|
E|----------3-3-3-3-----------3-----------------3-3-3-3--2-2-2-2--0-0-0-0----|

  PM---------------------------------------------------
e|---------------------------------------------------------------------------|
B|---------------------------------------------------------------------------|
G|---------------------------------------------------------------------------|
D|-6-6-6-6-----------6-6-6-6-----------6-6-6-6-------------------------------|
A|-4-4-4-4--5-5-5-5--4-4-4-4--5-5-5-5--4-4-4-4--5-5-5-5--4-4-4-4--2-2-2-2----|
E|----------3-3-3-3-----------3-3-3-3-----------3-3-3-3--2-2-2-2--0-0-0-0----|

 PM---------------------------------------------------
e|---------------------------------------------------------------------------|
B|---------------------------------------------------------------------------|
G|---------------------------------------------------------------------------|
D|-6-6-6-6-----------6-6-6-6-----------6-6-6-6-------------------------------|
A|-4-4-4-4--5-5-5-5--4-4-4-4--5-5-5-5--4-4-4-4--5-5-5-5--4-4-4-4--2-2-2-2----|
E|----------3-3-3-3-----------3-3-3-3-----------3-3-3-3--2-2-2-2--0-0-0-0----|

  PM---------------------------------------------------
e|---------------------------------------------------------------------------|
B|---------------------------------------------------------------------------|
G|---------------------------------------------------------------------------|
D|-6-6-6-6-----------6-6-6-6-----------6-6-6-6-------------------------------|
A|-4-4-4-4--5-5-5-5--4-4-4-4--5-5-5-5--4-4-4-4--5-5-5-5--4-4-4-4--2-2-2-2----|
E|----------3-3-3-3-----------3-3-3-3-----------3-3-3-3--2-2-2-2--0-0-0-0----|

[Chorus]

e|---------------------------------------------------------------------------|
B|---------------------------------------------------------------------------|
G|---------------------------------------------------------------------------|
D|-------2-------------------------2-----------------------------------------|
A|-4-2-4---2-4--4-2-4-2-0-0--4-2-4---2-4-2-2-2-2-----------------------------|
E|---------------------------------------------------------------------------|

e|---------------------------------------------------------------------------|
B|---------------------------------------------------------------------------|
G|---------------------------------------------------------------------------|
D|-------2-------------------------2-----------------------------------------|
A|-4-2-4---2-4--4-2-4-2-0-0--4-2-4---2-4-2-2-2-2-2-2-2-2--2-0----------------|
E|------------------------------------------------------------3-2------------|


[Solo]

e|----------------------------------------------------------------------------------------------|
B|-9--9--9--9--9--9--9--9--12-12-12-14--14-14-9--9--9--9--9--9--9--9--15-15-15-14-14-14---------|
G|-X--X--X--X--X--X--X--X--X--X--X--X---X--X--X--X--X--X--X--X--X--X--X--X--X--X--X--X----------|
D|-11-11-11-11-11-11-11-11-14-14-14-16--16-16-11-11-11-11-11-11-11-11-17-17-17-16-16-16---------|
A|----------------------------------------------------------------------------------------------|
E|----------------------------------------------------------------------------------------------|

e|----------------------------------------------------------------------------------------------|
B|-9--9--9--9--9--9--9--9--12-12-12-14--14-14--15-15-15-15-15-15-15-15-15-17-17-17-17-17-17-17\-|
G|-X--X--X--X--X--X--X--X--X--X--X--X---X--X---X--X--X--X--X--X--X--X--X--X--X--X--X--X--X--X---|
D|-11-11-11-11-11-11-11-11-14-14-14-16--16-16--17-17-17-17-17-17-17-17-17-19-19-19-19-19-19-19\-|
A|----------------------------------------------------------------------------------------------|
E|----------------------------------------------------------------------------------------------|

e|----------------------------------------------------------------------------------------------|
B|-9--9--9--9--9--9--9--9--12-12-12-14--14-14-9--9--9--9--9--9--9--9--15-15-15-14-14-14---------|
G|-X--X--X--X--X--X--X--X--X--X--X--X---X--X--X--X--X--X--X--X--X--X--X--X--X--X--X--X----------|
D|-11-11-11-11-11-11-11-11-14-14-14-16--16-16-11-11-11-11-11-11-11-11-17-17-17-16-16-16---------|
A|----------------------------------------------------------------------------------------------|
E|----------------------------------------------------------------------------------------------|

e|----------------------------------------------------------------------------------------------|
B|-9--9--9--9--9--9--9--9--12-12-12-14--14-14--15-15-15-15-15-15-15-15-15-17-17-17-17-17-17-17\-|
G|-X--X--X--X--X--X--X--X--X--X--X--X---X--X---X--X--X--X--X--X--X--X--X--X--X--X--X--X--X--X---|
D|-11-11-11-11-11-11-11-11-14-14-14-16--16-16--17-17-17-17-17-17-17-17-17-19-19-19-19-19-19-19\-|
A|----------------------------------------------------------------------------------------------|
E|----------------------------------------------------------------------------------------------|

[Verse]
 
 PM---------------------------------------------------
e|---------------------------------------------------------------------------|
B|---------------------------------------------------------------------------|
G|--------------------------------5b/----------------------------------------|
D|-6-6-6-6-----------6-6-6-6-----------6-6-6-6-------------------------------|
A|-4-4-4-4--5-5-5-5--4-4-4-4--5--------4-4-4-4--5-5-5-5--4-4-4-4--2-2-2-2----|
E|----------3-3-3-3-----------3-----------------3-3-3-3--2-2-2-2--0-0-0-0----|

  PM---------------------------------
e|---------------------------------------------------------------------------|
B|---------------------------------------------------------------------------|
G|---------------------------------------------------------------------------|
D|-6-6-6-6-----------6-6-6-6-----------6\------------------------------------|
A|-4-4-4-4--5-5-5-5--4-4-4-4--5-5-5-5--4\------------------------------------|
E|----------3-3-3-3-----------3-3-3-3----------------------------------------|


************************************

| x   Dead note
| b   Bend
| \   Slide down
| /   Slide up
| PM  Palm mute

************************************
Suggest correction
Give kudos to tab author, rate the tab!
1 2 3 4 5
comments
print report bad tab
guest
You may want to rate the tab now too:
select rating
Wanna post a correction for this tab? Suggest correction