Oops, an error
Loading. Please wait.

Rich Man Tab

version 2
version 2

Whole song

439 views 33 this week
no commentswrite comment
1 2 3 4 5
1 last vote to show rating
add to favorites
launch autoscroll
font size
0
reset
how to read this tab
guitar tuner
Autoscroll
slow
fast
+/-
esc
set tempo
stop
Help us to improve Ultimate-Guitar.com Take our survey!
×
Author
Difficulty
intermediate
 
Slaves - Rich Man

Tabbed by: BWebsterMUSIC

Tuning: Standard (EADGBe) 

Hello everyone, as requested, I thought I'd tab this song for all you guitarists. I learnt this song by ear 
when it came out and I am pretty sure this is how it is played. Hope it's good enough for you to learn!


[Intro]

e|-x--x----------|
B|-x--x----------|
G|-x--x----------|
D|-x--x----------|
A|-x--x----------|
E|-x--x--0-1-1-2-|



[Verse 1]

e|-----------------------------------------------------------------| 
B|-----------------------------------------------------------------|   
G|-----------------------------------------------------------------|  
D|-----------------------------------------------------------------|  
A|--------------------------------------------------------3--5-3---|  
E|-3----0-3-6----0-6-5-5--4--1-1-2-3----0-3-6----0-6-5-5---------6-|  
                                                                     
e|-----------------------------------------------------------------| 
B|-----------------------------------------------------------------|  
G|-----------------------------------------------------------------|  
D|-----------------------------------------------------------------|  
A|---------------------------------------------------3-3-3-3-3-3-3-|  
E|-3----0-3-6----0-6-5-5--4--1-1-2-3-----------------1-1-1-1-1-1-1-| 

e|-----------------------------------------------------------------| 
B|-----------------------------------------------------------------|  
G|-----------------------------------------------------------------|  
D|-----------------------------------------------------------------|  
A|--------------------------------------------------------3--5-3---|  
E|-3----0-3-6----0-6-5-5--4--1-1-2-3----0-3-6----0-6-5-5---------6-|

e|-----------------------------------------------------------------| 
B|-----------------------------------------------------------------|  
G|-----------------------------------------------------------------|  
D|-----------------------------------------------------------------|  
A|-------------------------------------------------3-3-3-3-3-3-3-3-|  
E|-3----0-3-6----0-6-5-5--4--1-1-2-3---------------1-1-1-1-1-1-1-1-| 



[Chorus 1]

e|-----------------------------------------------------------------|
B|-----------------------------------------------------------------|
G|-----------------------------------------------------------------|
D|-----------------------------------------------------------------|
A|-4-4-4-4-4-4-4-4-4-4-4-4-4-4-4-3-2-2-2-2-2-2-2-2-2-2-2-2-2-2-2-3-|
E|-3-3-3-3-3-3-3-3-3-3-3-3-3-3-3-2-1-1-1-1-1-1-1-1-1-1-1-1-1-1-1-2-|

e|----------------------------------------------------------------------------------|
B|----------------------------------------------------------------------------------|
G|-------------------------------------------------------------------3-5b--5b-5-3---|
D|--------------------------------------------------------------------------------5-|
A|-4-4-4-4-4-4-4-4-4-4-4-4-4-4-4-3-2-2-2-2-2-2-2-2-2-2-2-2-2-2-2-2-2----------------|
E|-3-3-3-3-3-3-3-3-3-3-3-3-3-3-3-2-1-1-1-1-1-1-1-1-1-1-1-1-1-1-1-1-1----------------|



[Verse 2]

e|-----------------------------------------------------------------| 
B|-----------------------------------------------------------------|   
G|-----------------------------------------------------------------|  
D|-----------------------------------------------------------------|  
A|--------------------------------------------------------3--5-3---|  
E|-3----0-3-6----0-6-5-5--4--1-1-2-3----0-3-6----0-6-5-5---------6-|  
                                                                     
e|-----------------------------------------------------------------| 
B|-----------------------------------------------------------------|  
G|-----------------------------------------------------------------|  
D|-----------------------------------------------------------------|  
A|---------------------------------------------------3-3-3-3-3-3-3-|  
E|-3----0-3-6----0-6-5-5--4--1-1-2-3-----------------1-1-1-1-1-1-1-| 

e|-----------------------------------------------------------------| 
B|-----------------------------------------------------------------|  
G|-----------------------------------------------------------------|  
D|-----------------------------------------------------------------|  
A|--------------------------------------------------------3--5-3---|  
E|-3----0-3-6----0-6-5-5--4--1-1-2-3----0-3-6----0-6-5-5---------6-|

e|-----------------------------------------------------------------| 
B|-----------------------------------------------------------------|  
G|-----------------------------------------------------------------|  
D|-----------------------------------------------------------------|  
A|-------------------------------------------------3-3-3-3-3-3-3-3-|  
E|-3----0-3-6----0-6-5-5--4--1-1-2-3---------------1-1-1-1-1-1-1-1-| 



[Chorus 2]

e|-----------------------------------------------------------------|
B|-----------------------------------------------------------------|
G|-----------------------------------------------------------------|
D|-----------------------------------------------------------------|
A|-4-4-4-4-4-4-4-4-4-4-4-4-4-4-4-3-2-2-2-2-2-2-2-2-2-2-2-2-2-2-2-3-|
E|-3-3-3-3-3-3-3-3-3-3-3-3-3-3-3-2-1-1-1-1-1-1-1-1-1-1-1-1-1-1-1-2-|

e|----------------------------------------------------------------------------------|
B|----------------------------------------------------------------------------------|
G|-------------------------------------------------------------------3-5b--5b-5-3---|
D|--------------------------------------------------------------------------------5-|
A|-4-4-4-4-4-4-4-4-4-4-4-4-4-4-4-3-2-2-2-2-2-2-2-2-2-2-2-2-2-2-2-2-2----------------|
E|-3-3-3-3-3-3-3-3-3-3-3-3-3-3-3-2-1-1-1-1-1-1-1-1-1-1-1-1-1-1-1-1-1----------------|



[Bridge]

e|-----------------------------------------------------------------| 
B|-----------------------------------------------------------------|  
G|-----------------------------------------------------------------|  
D|-----------------------------------------------------------------|  
A|--------------------------------------------------------3--5-3---|  
E|-3----0-3-6----0-6-5-5--4--1-1-2-3----0-3-6----0-6-5-5---------6-|

e|-----------------------------------------------------------------| 
B|-----------------------------------------------------------------|  
G|-----------------------------------------------------------------|  
D|-----------------------------------------------------------------|  
A|-------------------------------------------------3-3-3-3-3-3-3-3-|  
E|-3----0-3-6----0-6-5-5--4--1-1-2-3---------------1-1-1-1-1-1-1-1-| 



[Chorus 3]

e|-----------------------------------------------------------------|
B|-----------------------------------------------------------------|
G|-----------------------------------------------------------------|
D|-----------------------------------------------------------------|
A|-4-4-4-4-4-4-4-4-4-4-4-4-4-4-4-3-2-2-2-2-2-2-2-2-2-2-2-2-2-2-2-3-|
E|-3-3-3-3-3-3-3-3-3-3-3-3-3-3-3-2-1-1-1-1-1-1-1-1-1-1-1-1-1-1-1-2-|

e|----------------------------------------------------------------------------------|
B|----------------------------------------------------------------------------------|
G|-------------------------------------------------------------------3-5b--5b-5-3---|
D|--------------------------------------------------------------------------------5-|
A|-4-4-4-4-4-4-4-4-4-4-4-4-4-4-4-3-2-2-2-2-2-2-2-2-2-2-2-2-2-2-2-2-2----------------|
E|-3-3-3-3-3-3-3-3-3-3-3-3-3-3-3-2-1-1-1-1-1-1-1-1-1-1-1-1-1-1-1-1-1----------------|


Feel free to comment and rate
Thanks, hope you enjoy!


************************************

| x   Dead note
| g   Grace note
| (n) Ghost note
| h   Hammer-on
| p   Pull-off
| r   Release
| >   Accented note
| t   Tapping
| b   Bend
| br  Bend release
| pb  Pre-bend
| pbr Pre-bend release
| /   Slide up
| \   Slide down
| ~   Vibrato
| s   Slap
| P   Pop
| PM  Palm mute
| TR  Trill
| N   Tremolo

************************************
Suggest correction
Give kudos to tab author, rate the tab!
1 2 3 4 5
comments
print report bad tab
guest
You may want to rate the tab now too:
select rating
Wanna post a correction for this tab? Suggest correction