Oops, an error
Loading. Please wait.

Same Again tab

version 1
version 1

Whole song

  • Tab taken off the record and live versions copied ... Show more

Interactive

by Slaves
250 views 6 this week
no commentswrite comment
1 2 3 4 5
x 3
add to favorites
×
Save as Personal and add changes to this tab that will be seen only by you. Learn more ›
×
You can save this tab as Personal to edit and correct it or add notes. All changes will be seen only by you. Learn more »
launch autoscroll
font size
0
reset
how to read this tab
guitar tuner
edit
Autoscroll
slow
fast
+/-
esc
set tempo
stop
About this tab version
Tab taken off the record and live versions copied off the style Laurie plays it live. not sure of effect although there is alot of distortion and slight octave effect. Was this info helpful? Yes No
[Riff 1]
played in quick succession ESPECIALLY ON THE LOOP AROUND BETWEEN THE RIFFS
(palm mute certain notes more)
PM                               
e|----------------------|                                                          
B|----------------------|        
G|----------------------|
D|----------------------|        
A|------8---------------|        
E|---77---77-10-77------|        

PM
e|----------------------| 
B|----------------------|
G|----------------------|
D|----------------------|
A|------7-----5---------|
E|----66---66----66-----|(x4)

[Riff 2]
played hard and fast with all down strokes                               
e|----------------------|                                                           
B|----------------------|        
G|----------------------| 
D|----------------------|        
A|---5-55-8888----------|        
E|---7-77-6666----------|        

e|----------------------|
B|----------------------|
G|----------------------|
D|----------------------|
A|----5-55-4444---------|
E|----3-33-2222---------|

[Riff 1]
played in quick succession ESPECIALLY ON THE LOOP AROUND BETWEEN THE RIFFS
(palm mute certain notes more)
PM                               
e|----------------------|                                                          
B|----------------------|        
G|----------------------|
D|----------------------|        
A|------8---------------|        
E|---77---77-10-77------|        

PM
e|----------------------| 
B|----------------------|
G|----------------------|
D|----------------------|
A|------7-----5---------|
E|----66---66----66-----|(x2)

[Riff 2]
played hard and fast with all down strokes                               
e|----------------------|                                                           
B|----------------------|        
G|----------------------| 
D|----------------------|        
A|---5-55-8888----------|        
E|---7-77-6666----------|        

e|----------------------|
B|----------------------|
G|----------------------|
D|----------------------|
A|----5-55-4444---------|
E|----3-33-2222---------|(x2)

[Riff 3]
hard picks again. may need more pausing in certain areas                                
e|----------------------|                                       
B|----------------------|        
G|----------------------|(x2)
D|---9-9-1099-9-9-109---|        
A|---9-9-1099-9-9-109---|        
E|---7-7-8-77-7-7-8-7---|        

e|----------------------|                                       
B|----------------------|        
G|----------------------|(x2)
D|---5-5-4-55-5-5-4-5---|        
A|---5-5-4-55-5-5-4-5---|        
E|---3-3-2-33-3-3-2-3---|  

e|---------------------------------------------------|                                       
B|---------------------------------------------------|        
G|---------------------------------------------------|(x2)
D|---14-14-14-14-14-14-14-14-15-15-15-15-15-15-15-15|        
A|---14-14-14-14-14-14-14-14-15-15-15-15-15-15-15-15|        
E|---12-12-12-12-12-12-12-12-13-13-13-13-13-13-13-13|  






[Riff 1]
played in quick succession ESPECIALLY ON THE LOOP AROUND BETWEEN THE RIFFS
(palm mute certain notes more)
PM                               
e|----------------------|                                                          
B|----------------------|        
G|----------------------|
D|----------------------|        
A|------8---------------|        
E|---77---77-10-77------|        

PM
e|----------------------| 
B|----------------------|
G|----------------------|
D|----------------------|
A|------7-----5---------|
E|----66---66----66-----|(x3)

[Riff 2]
played hard and fast with all down strokes                               
e|----------------------|                                                           
B|----------------------|        
G|----------------------| 
D|----------------------|        
A|---5-55-8888----------|        
E|---7-77-6666----------|        

e|----------------------|
B|----------------------|
G|----------------------|
D|----------------------|
A|----5-55-4444---------|
E|----3-33-2222---------|(x2)


            
            
Suggest correction
Creating personal tab
Creating personal tab
You can edit any tab online and save it as your Personal.

You can edit, replace or remove any tab part or add personal notes – all changes will be seen only by you.

Personal tabs can be accessed anytime from any device, even offline.
Learn more »
Give kudos to tab author, rate the tab!
1 2 3 4 5
comments
print report bad tab
guest
You may want to rate the tab now too:
select rating
Wanna post a correction for this tab? Suggest correction