Oops, an error
Loading. Please wait.

Shutdown tab

version 1
version 1

Whole song

by Slaves
19,373 views 102 this week
2 commentsread comments
1 2 3 4 5
x 16
add to favorites
×
Save as Personal and add changes to this tab that will be seen only by you. Learn more ›
×
You can save this tab as Personal to edit and correct it or add notes. All changes will be seen only by you. Learn more »
launch autoscroll
font size
0
reset
how to read this tab
guitar tuner
edit
Autoscroll
slow
fast
+/-
esc
set tempo
stop
Author
Difficulty
-------------------------------------------------------------------------------
                     SHUTDOWN (SKEPTA COVER) - Slaves
-------------------------------------------------------------------------------
Tabbed by: andyrhodes24
Tuning: Standard (EADGBE)

Here's the full tab for Slaves' Live Lounge cover of Skepta's 'Shutdown'.
Fantastic cover, not sure what effects are there - I just use distortion
and chorus through the whole song, as near as I'm gonna get. Anyway enjoy.

Timings accurate to match the BBC Radio One Live Lounge video below:
https://www.youtube.com/watch?v=2q7diPPrayg


[Intro]

(0:22)
e|----------------------------------------------------------------------------|
B|----------------------------------------------------------------------------|
G|----------------------------------------------------------------------------|
D|----------------------------------------------------------------------------|
A|---5--------------------------------------------X6--------------------------|
E|-3---6-3/--2-2-3------------------------------------------------------------|


[Verse 1]

(0:42)
e|------------------------------------------------------------------------------|
B|---------7-7-8/------------7-7-8/---------7-7-8/-----------7-7-8--------------|
G|------------------------------------------------------------------------------|
D|------------------------------------------------------------------------------|
A|---1-----------------1--------------1----------------1------------------------|
E|-3---3\----------3-3---3\---------3---3\---------3-3---3\---------------------|

e|------------------------------------------------------------------------------|
B|-8-7-----------------------------7-7-8--8-7-----------------------------------|
G|-----8-7------------------------------------8-7-------------------------------|
D|---------8-7-5-4--------------------------------8-7-5-4-----------------------|
A|----------------------------1--------------------------------------1----------|
E|-----------------2-3-3--3-3---3/------------------------2-3-3--3-3---3--2-2-3-|


[Chorus 1]

(1:08)
e|----------------------------------------------------------------------------|
B|----------------------------------------------------------------------------|
G|----------------------------------------------------------------------------|
D|----------------------------------------------------------------------------|
A|---5--------------------------------------------X4--------------------------|
E|-3---6-3--2-2-3-------------------------------------------------------------|


[Verse 2]

(1:21)
e|------------------------------------------------------------------------------|
B|---------7-7-8/------------7-7-8--8-7-----------------------------------------|
G|--------------------------------------8-7-------------------------------------|
D|------------------------------------------8-7-5-4-----------------------------|
A|---1-----------------1-----------------------------------------1--------------|
E|-3---3\----------3-3---3\--------------------------2-3-3\--3-3---3---2-3-3----|

e|-----------------------------------------------------------------------------|
B|---------7-7-8/------------7-7-8----------7-7-8--8-7-------------------------|
G|-----------------------------------------------------8-7---------------------|
D|---------------------------------------------------------8-7-5-4-------------|
A|---1-----------------1--------------1----------------------------------------|
E|-3---3\----------3-3---3\---------3---3/-------------------------2-3-3-------|


[Chorus 2]

(1:48)
e|----------------------------------------------------------------------------|
B|----------------------------------------------------------------------------|
G|----------------------------------------------------------------------------|
D|----------------------------------------------------------------------------|
A|---5--------------------------------------------X4--------------------------|
E|-3---6-3--2-2-3-------------------------------------------------------------|

        A bunch of young men all dressed in black dancing extremely
       aggressively on stage, it made me feel so intimidated and it's
           just not what I expect to see on prime time television


[Verse 3]

(2:19)
e|----------------------------------------------------------------------------|
B|---------7-7-8/-----------7-7-8/---------7-7-8/----------7-7-8--------------|
G|----------------------------------------------------------------------------|
D|----------------------------------------------------------------------------|
A|---1----------------1--------------1---------------1------------------------|
E|-3---3\----------33---3\---------3---3\---------33---3\---------------------|

e|------------------------------------------------------------------------------|
B|-8-7------------------------------7-7-8--8-7----------------------------------|
G|-----8-7-------------------------------------8-7------------------------------|
D|---------8-7-5-4---------------------------------8-7-5-4----------------------|
A|----------------------------1---------------------------------------1---------|
E|-----------------2-3-3--3-3---3/-------------------------2-3-3--3-3---1--2-2-3|


[Chorus 3] 

(2:45)
e|----------------------------------------------------------------------------|
B|----------------------------------------------------------------------------|
G|----------------------------------------------------------------------------|
D|----------------------------------------------------------------------------|
A|---5--------------------------------------------X8--------------------------|
E|-3---6-3--2-2-3-------------------------------------------------------------|



************************************

| /  Slide up
| \  Slide down  

************************************
Suggest correction
Creating personal tab
Creating personal tab
You can edit any tab online and save it as your Personal.

You can edit, replace or remove any tab part or add personal notes – all changes will be seen only by you.

Personal tabs can be accessed anytime from any device, even offline.
Learn more »
comments
print report bad tab
2 comments total.
0 reply
huntellis 10 Jun 13, 2015 11:47 AM

Thanks alot!

0 reply
irhagzy 1,297 Oct 09, 2015 08:51 AM

I think that he uses a harmonist type effect with it set to -1 octave too. Thanks for the tab though!!

guest
You may want to rate the tab now too:
select rating
Wanna post a correction for this tab? Suggest correction