Oops, an error
Loading. Please wait.

Steer Clear Bass Tab

313 views 24 this week
no commentswrite comment
1 2 3 4 5
2 more votes to show rating
add to favorites
launch autoscroll
font size
0
reset
guitar tuner
Autoscroll
slow
fast
+/-
esc
set tempo
stop
Help us to improve Ultimate-Guitar.com Take our survey!
×
Author
Difficulty
novice
About this tab version
This is first bass version of this song. I hope you like it. I think in chorus playing only one string, but i think - i can be wrong. Was this info helpful? Yes No
Play with pick.
This song has two easy parts.

H - Harmonics
/\- Slide

Verse 1
                                           _
G|-------------------------------------|    |
D|----9-9-9-9-9--7-7-7--11-11-11-11----|    |
A|----0-0-0-0-0--0-0-0--0--0--0--0-----|    |
E|-------------------------------------|    |
                                            | 6x
G|----------------------------------9--|    |
D|----9-9-9-9-9--7---9--7-----7--9-----|    |
A|----0-0-0-0-0--0---------9-----------|    |
E|-------------------------------------|    |
                     H  H  H  H  H         _|
Chorus
(Listen the song and listen rhythm)

G|-------------------------------------|
D|-------------------------------------|
A|-----9---7/14---12/9---7/14---12/0---|
E|-------------------------------------|

Verse 2
                                           _
G|-------------------------------------|    |
D|----9-9-9-9-9--7-7-7--11-11-11-11----|    |
A|----0-0-0-0-0--0-0-0--0--0--0--0-----|    |
E|-------------------------------------|    |
                                            | 4x
G|----------------------------------9--|    |
D|----9-9-9-9-9--7---9--7-----7--9-----|    |
A|----0-0-0-0-0--0---------9-----------|    |
E|-------------------------------------|    |
                     H  H  H  H  H         _|

Chorus

G|-------------------------------------|
D|-------------------------------------|
A|-----9---7/14---12/9---7/14---12/0---|
E|-------------------------------------|

Verse 3
                                           _
G|-------------------------------------|    |
D|----9-9-9-9-9--7-7-7--11-11-11-11----|    |
A|----0-0-0-0-0--0-0-0--0--0--0--0-----|    |
E|-------------------------------------|    |
                                            | 4x
G|----------------------------------9--|    |
D|----9-9-9-9-9--7---9--7-----7--9-----|    |
A|----0-0-0-0-0--0---------9-----------|    |
E|-------------------------------------|    |
                     H  H  H  H  H         _|

END.
Suggest correction
Give kudos to tab author, rate the tab!
1 2 3 4 5
comments
print report bad tab
guest
You may want to rate the tab now too:
select rating
Wanna post a correction for this tab? Suggest correction