Oops, an error
Loading. Please wait.

Steer Clear Tab

1,024 views 30 this week
2 commentsread comments
1 2 3 4 5
x 5
add to favorites
launch autoscroll
font size
0
reset
how to read this tab
guitar tuner
×
Best way to learn
"Steer Clear"
Autoscroll
slow
fast
+/-
esc
set tempo
stop
Author
Difficulty
  follow
intermediate
This is my first tab so please correct if wrong!
This song just came out today as well so this is the only way I've been able to figure out how to play it!
Enjoy!
-Joe 
*********************

() = Harmonic 
/ = slide

*********************
[Intro] / [Verse]

e|---------------------------------------------------------------------------|
B|---------------------------------------------------------------------------|
G|---------------------------------------------------------------------------|
D|---------------------------------------------------------------------------|
A|--2-2-2-2-2-0-0-2/4-4-4-2-2-2-2-2-2-0----------------(5)-(7)-(9)-----------|
E|--5-5-5-5-5-5-5-5---5-5-5-5-5-5-5-5-5----(7)-(5)-(7)-----------------------|

e|---------------------------------------------------------------------------|
B|---------------------------------------------------------------------------|
G|---------------------------------------------------------------------------|
D|---------------------------------------------------------------------------|
A|---------------------------------------------------------------------------|
E|---------------------------------------------------------------------------|



[Chorus]

e|--2-------4------5-------5-------------------------------------------------|
B|--2-------5------7-------5-------------------------------------------------|
G|--2-------6------7-------6-------------------------------------------------|
D|--4-------6------7-------7-------------------------------------------------|
A|--4-------4------5-------7-------------------------------------------------|
E|--2----------------------5-------------------------------------------------|

e|---------------------------------------------------------------------------|
B|---------------------------------------------------------------------------|
G|---------------------------------------------------------------------------|
D|---------------------------------------------------------------------------|
A|---------------------------------------------------------------------------|
E|---------------------------------------------------------------------------|


[Outro]

e|---------------------------------------------------------------------------|
B|---------------------------------------------------------------------------|
G|---------------------------------------------------------------------------|
D|---------------------------------------------------------------------------|
A|--2-2-2-2-2-0-0-2/4-4-4-2-2-2-2-2-2-0----------------(5)-(7)-(9)-----------|
E|--5-5-5-5-5-5-5-5---5-5-5-5-5-5-5-5-5----(7)-(5)-(7)-----------------------|
Suggest correction
comments
print report bad tab
2 comments total.
+2 reply
cameronneilha 10 Oct 01, 2016 04:21 PM

omg yes mate my favourite song on the new album

0 reply
joshuaread4 26 Nov 19, 2016 02:39 PM

This seems spot on mate, thanks, I love this song!

guest
You may want to rate the tab now too:
select rating
Wanna post a correction for this tab? Suggest correction