Oops, an error
Loading. Please wait.

The Hills Tab

139 views 27 this week
no commentswrite comment
1 2 3 4 5
3 more votes to show rating
add to favorites
launch autoscroll
font size
0
reset
how to read this tab
guitar tuner
Autoscroll
slow
fast
+/-
esc
set tempo
stop
Help us to improve Ultimate-Guitar.com Take our survey!
×
Author
Slaves
The Hills 
Standard Tuning

[Intro]
Distortion And Treble Single Strum
e|------------|
B|------------|
G|------------|
D|-3--3--3----|
A|-3--3--3----|
E|-1--1--1----|

e|------------------------------------------------------------------------------------|
B|------------------------------------------------------------------------------------|
G|------------------------------------------------------------------------------------|
D|---10-------6-------3-------6-------------------------------------------------------|
A|---10-------6-------3-------6------X2-----------------------------------------------|
E|---8--------4-------1-------4-------------------------------------------------------|


[Chorus]
No Treble - Strumming
e|----------------------------------------------------------------------------------|
B|----------------------------------------------------------------------------------|
G|----------------------------------------------------------------------------------|
D|---10-------6-------3-------6-----------------------------------------------------|
A|---10-------6-------3-------6-----------------------------------------------------|
E|---8--------4-------1-------4-----------------------------------------------------|

[Verse]
Strum Palm Strumming
e|------------------------------------------------------------------------------------|
B|------------------------------------------------------------------------------------|
G|------------------------------------------------------------------------------------|
D|---10-------6-------3-------6-------------------------------------------------------|
A|---10-------6-------3-------6------X2-----------------------------------------------|
E|---8--------4-------1-------4-------------------------------------------------------|


[Chorus]
No Treble - Strumming
e|------------------------------------------------------------------------------------|
B|------------------------------------------------------------------------------------|
G|------------------------------------------------------------------------------------|
D|---10-------6-------3-------6-------------------------------------------------------|
A|---10-------6-------3-------6-------X2----------------------------------------------|
E|---8--------4-------1-------4-------------------------------------------------------|


[Verse]
Strum Palm Single Strum
e|------------------------------------------------------------------------------------|
B|------------------------------------------------------------------------------------|
G|------------------------------------------------------------------------------------|
D|---10-------8-------6-------3-------------------------------------------------------|
A|---10-------8-------6-------3------X2-----------------------------------------------|
E|---8--------6-------4-------1-------------------------------------------------------|


[Chorus]
No Treble - Strumming
e|------------------------------------------------------------------------------------|
B|------------------------------------------------------------------------------------|
G|------------------------------------------------------------------------------------|
D|---10-------6-------3-------6-------------------------------------------------------|
A|---10-------6-------3-------6-------X3----------------------------------------------|
E|---8--------4-------1-------4-------------------------------------------------------|

[Outro] 
Single Strum
e|----------------------------------------------|
B|----------------------------------------------|
G|----------------------------------------------|
D|--10---6----8----5----10----6-----5--5--5--5--|
A|--10---6----8----5----10----6-----5--5--5--5--|
E|--8----4----6----3----8-----4-----3--3--3--3--| 
Suggest correction
Give kudos to tab author, rate the tab!
1 2 3 4 5
comments
print report bad tab
guest
You may want to rate the tab now too:
select rating
Wanna post a correction for this tab? Suggest correction