Oops, an error
Loading. Please wait.

There Is Only One God And His Name Is Death Acoustic tab

version 1
version 1

Whole song

  • This is pretty much the meats and patatos. Not sur... Show more
by Slaves
652 views 24 this week
no commentswrite comment
1 2 3 4 5
3 more votes to show rating
add to favorites
×
Save as Personal and add changes to this tab that will be seen only by you. Learn more ›
×
You can save this tab as Personal to edit and correct it or add notes. All changes will be seen only by you. Learn more »
launch autoscroll
font size
0
reset
how to read this tab
guitar tuner
edit
Autoscroll
slow
fast
+/-
esc
set tempo
stop
About this tab version
This is pretty much the meats and patatos. Not sure what these chord names are feel free to edit. All rights to slaves. Was this info helpful? Yes No
[Intro]
   1.     2.     3.    4.    5. 
D|-0------0------0-----0-----0-----------------------------------------------|
A|-10-----9------12----5-----0-----------------------------------------------|
F|-9------9------11----4-----9-----------------------------------------------|
C|-7------7------9-----2-----7-----------------------------------------------|
G|-9------9------11----4-----9-----------------------------------------------|
C|-0------0------0-----0-----0-----------------------------------------------|

D|---------------------------------------------------------------------------|
A|---------------------------------------------------------------------------|
F|---------------------------------------------------------------------------|
C|---------------------------------------------------------------------------|
G|---------------------------------------------------------------------------|
C|---------------------------------------------------------------------------|


[Verse]
   1.     2.     1.     3.      
D|-0------0------0-------0---------------------------------------------------|
A|-10-----9------10-----12----------------------------------------------------|
F|-9------9------9------11------------------------------------------------------|
C|-7------7------7-------9------------------------------------------------------|
G|-9------9------9------11---------------------------------------------------|
C|-0------0------0-------0--------

D|---------------------------------------------------------------------------|
A|---------------------------------------------------------------------------|
F|---------------------------------------------------------------------------|
C|---------------------------------------------------------------------------|
G|---------------------------------------------------------------------------|
C|---------------------------------------------------------------------------|

D|---------------------------------------------------------------------------|
A|---------------------------------------------------------------------------|
F|---------------------------------------------------------------------------|
C|---------------------------------------------------------------------------|
G|---------------------------------------------------------------------------|
C|---------------------------------------------------------------------------|


[Chorus]
   1.      2.      4.      1. 
D|-0-------0-------0-------0---------------------------------------------------|
A|-10------9-------5-------10--------------------------------------------------|
F|-9-------9-------4-------9---------------------------------------------------|
C|-7-------7-------2-------7---------------------------------------------------|
G|-9-------9-------4-------9---------------------------------------------------|
C|-0-------0-------0-------0---------------------------------------------------|

D|---------------------------------------------------------------------------|
A|---------------------------------------------------------------------------|
F|---------------------------------------------------------------------------|
C|---------------------------------------------------------------------------|
G|---------------------------------------------------------------------------|
C|---------------------------------------------------------------------------|


[bridge]
   1.    5.     1.     
D|-0-----0------0----------------------------------------------------------|
A|-10----0------10---------------------------------------------------------|
F|-9-----9------9----------------------------------------------------------|
C|-7-----7------7----------------------------------------------------------|
G|-9-----9------9----------------------------------------------------------|
C|-0-----0------0----------------------------------------------------------|
   1.     5.     1.     2. 
D|-0------0------0------0--------------------------------------------------|
A|-10-----0------10-----9--------------------------------------------------|
F|-9------9------9------9--------------------------------------------------|
C|-7------7------7------7--------------------------------------------------|
G|-9------9------9------9--------------------------------------------------|
C|-0------0------0------0--------------------------------------------------|

************************************
 All rights go to slaves 
Please add or edit if you think something should be changed 


| x   Dead note
| g   Grace note
| (n) Ghost note
| h   Hammer-on
| p   Pull-off
| r   Release
| >   Accented note
| t   Tapping
| b   Bend
| br  Bend release
| pb  Pre-bend
| pbr Pre-bend release
| /   Slide up
| \   Slide down
| ~   Vibrato
| s   Slap
| P   Pop
| PM  Palm mute
| TR  Trill
| N   Tremolo

************************************

            
            
Suggest correction
Creating personal tab
Creating personal tab
You can edit any tab online and save it as your Personal.

You can edit, replace or remove any tab part or add personal notes – all changes will be seen only by you.

Personal tabs can be accessed anytime from any device, even offline.
Learn more »
Give kudos to tab author, rate the tab!
1 2 3 4 5
comments
print report bad tab
guest
You may want to rate the tab now too:
select rating
Wanna post a correction for this tab? Suggest correction