Oops, an error
Loading. Please wait.

White Knuckle Ride tab

version 2
version 2

Whole song

by Slaves
892 views 3 this week
2 commentsread comments
1 2 3 4 5
1 last vote to show rating
add to favorites
×
Save as Personal and add changes to this tab that will be seen only by you. Learn more ›
×
You can save this tab as Personal to edit and correct it or add notes. All changes will be seen only by you. Learn more »
launch autoscroll
font size
0
reset
how to read this tab
guitar tuner
edit
Autoscroll
slow
fast
+/-
esc
set tempo
stop
Author
Difficulty
-------------------------------------------------------------------------------
                          White Knuckle Ride - Slaves
-------------------------------------------------------------------------------
Tabbed by: Rory H
E-mail: rdeh10@googlemail.com

Tuning: EADGBe


So I found the tabs already up to be inaccurate and of course had to make my own :) This is a great one
to mess around with and have fun with so please go for it! I have used performances and videos to hopefully
accurately tab this as it is played, but please do let me know if there are any inaccuracies or 
improvements in the comments, or by email :) Enjoy!

*Most of the song is played with some sort of harmoniser, set to -1 octave to achieve the bassy background
 so if you have one, use it when it sounds appropriate :)

VERSE 1:
e|-----------------|-----------------|------------------|-----------------|
B|-----------------|-----------------|------------------|-----------------|
G|-----------------|-----------------|------------7-7---|-----------------|
D|-----------------|-----------------|------------7-7---|-----------------|
A|-----------------|-----------------|------------------|2-2-2-2-2-3-3-3/-|
E|-9-9-9-9-9-9-9-9-|-9-9-9-9-9-9-9-9-|9\5-5-5-5-5-----5-|-----------------|

e|-----------------|-----------------|------------------|-----------------|
B|-----------------|-----------------|------------------|-----------------|
G|-----------------|-----------------|------------7-7---|-----------------| x10
D|-----------------|-----------------|------------7-7---|-----------------| 
A|-----------------|-----------------|------------------|2-2-2-2-2-3-3-3/-|
E|/9-9-9-9-9-9-9-9-|-9-9-9-9-9-9-9-9-|9\5-5-5-5-5-----5-|-----------------|

CHORUS:
e|----------------------------------------|-------------------------------------------|
B|----------------------------------------|-------------------------------------------|
G|------------------9/11-------------4/6--|---------------------------------------4/6-|
D|----------------------------------------|11-11-11-11-11-/14-x-14/16-7-7-7-7---------|
A|----------------0--------------x--------|-x--x--x--x--x-----x-------x-x-x-x-7-------|
E|-9-9-9-9-9-9-12--------5-5-5-5---7------|-9--9--9--9--9-/12-0-------5-5-5-5---0-----|

e|---------------------------------------|------------------------------|
B|---------------------------------------|------------------------------|
G|-----------------------------------4/6-|------------------------------|
D|11-11-11-11-14-x-14/16-7-7-7-7---------|11-11-11-11-14-x-7-7-7-14--14-|
A|-x--x--x--x--x-x-------x-x-x-x-7-------|-x--x--x--x--x-x-x-x-x--x---x-|
E|-9--9--9--9-12-0-------5-5-5-5---0-----|-9--9--9--9-12-0-5-5-5-12--12-|

VERSE 2:
e|-----------------|-----------------|------------------|-----------------|
B|-----------------|-----------------|------------------|-----------------|
G|-----------------|-----------------|------------7-7---|-----------------|
D|-----------------|-----------------|------------7-7---|-----------------|
A|-----------------|-----------------|------------------|2-2-2-2-2-3-3-3/-|
E|-9-9-9-9-9-9-9-9-|-9-9-9-9-9-9-9-9-|9\5-5-5-5-5-----5-|-----------------|

e|-----------------|-----------------|------------------|-----------------|
B|-----------------|-----------------|------------------|-----------------|
G|-----------------|-----------------|------------7-7---|-----------------| x7(Take harmoniser off for last
D|-----------------|-----------------|------------7-7---|-----------------|    rep)
A|-----------------|-----------------|------------------|2-2-2-2-2-3-3-3/-|
E|/9-9-9-9-9-9-9-9-|-9-9-9-9-9-9-9-9-|9\5-5-5-5-5-----5-|-----------------|

CHORUS:
e|----------------------------------------|-------------------------------------------|
B|----------------------------------------|-------------------------------------------|
G|------------------9/11-------------4/6--|---------------------------------------4/6-|
D|----------------------------------------|11-11-11-11-11-/14-x-14/16-7-7-7-7---------|
A|----------------0--------------x--------|-x--x--x--x--x-----x-------x-x-x-x-7-------|
E|-9-9-9-9-9-9-12--------5-5-5-5---7------|-9--9--9--9--9-/12-0-------5-5-5-5---0-----|

e|---------------------------------------|-----------------------------------------------------------|
B|---------------------------------------|-----------------------------------------------------------|
G|-----------------------------------4/6-|-----------------------------------------------------------|
D|11-11-11-11-14-x-14/16-7-7-7-7---------|11-11-11-11-14-x-7-7-7-14--14--14---14---14---14---14----14|
A|-x--x--x--x--x-x-------x-x-x-x-7-------|-x--x--x--x--x-x-x-x-x--x---x---x----x----x----x----x-----x|
E|-9--9--9--9-12-0-------5-5-5-5---0-----|-9--9--9--9-12-0-5-5-5-12--12--12---12---12---12---12----12|

OUTRO:
e|-----------------------------------|
B|-----------------------------------|
G|---------------------------5-5-5-5-| Play until end, varying how many strings you play and whether
D|-9-9-9-9-9-9-9-9-x-7-7-7-x-5-5-5-5-| or not you're using the harmoniser. (Listen to the track :))
A|-9-9-9-9-9-9-9-9-x-7-7-7-x-3-3-3-3-|
E|-7-7-7-7-7-7-7-7-0-5-5-5-0---------|


************************************

| /   slide up
| \   slide down
| h   hammer-on
| p   pull-off
| ~   vibrato
| +   harmonic
| x   Mute note
| b   Bend
| pb  Pre-bend
| br  Bend release
| pbr Pre-bend release
| brb Bend release bend

************************************
Suggest correction
Creating personal tab
Creating personal tab
You can edit any tab online and save it as your Personal.

You can edit, replace or remove any tab part or add personal notes – all changes will be seen only by you.

Personal tabs can be accessed anytime from any device, even offline.
Learn more »
Give kudos to tab author, rate the tab!
1 2 3 4 5
comments
print report bad tab
2 comments total.
0 reply
TorascarSimran 13 Jan 05, 2016 07:44 AM

Great song. Good tab.

guest
You may want to rate the tab now too:
select rating
Wanna post a correction for this tab? Suggest correction