Oops, an error
Loading. Please wait.

Winter Everywhere intro tab

version 2
version 2

Intro

by Slaves
1,330 views 30 this week
1 commentread comment
1 2 3 4 5
2 more votes to show rating
add to favorites
×
Save as Personal and add changes to this tab that will be seen only by you. Learn more ›
×
You can save this tab as Personal to edit and correct it or add notes. All changes will be seen only by you. Learn more »
launch autoscroll
font size
0
reset
how to read this tab
guitar tuner
edit
Autoscroll
slow
fast
+/-
esc
set tempo
stop
Author
Difficulty
-------------------------------------------------------------------------------
                             WINTER EVERYWHERE - Slaves
-------------------------------------------------------------------------------
Tabbed by:Eric Merrill
E-mail: merrilleric18@yahoo.com

This is a cool tune and I noticed the other tab for this song was completely wrong, I 
decided to give it a better shot at it. This way sounds 10x better with the recording and 
is a lot easier to play.
I'm almost positive this song is in a different tuning but I'll try to keep it in standard.
I use fingerpicking just like the recording.If you have any comments or questions, let 
me know.
Thanks! It's easiest to learn by listening and playing to the song, I know there is more 
bass notes
he is hitting in the first slide part but that is the closest I could make out.

Tuning:Standard

e|-----x--------11---x------------------x----------x------------|
B|-/11-x-11p9p8----9~x------------------x-----11~--x------------|
G|-----x-------------x-------10----10-11x---10-----x---10-11----|
D|-/8--x-----------6~x-----11----11-----x-11-------x-11---------|
A|-----x-------------x---11-----9-------x9---------x9-----------|
E|-----x-------------x--9---------------x----------x------------|

e|-----x--------11---x------------------x----------|
B|-/11-x-11p9p8----9~x------------------x----------|
G|-----x-------------x-------10----10-11x---10-11~-|
D|-/8--x-----------6~x-----11----11-----x-11-------|
A|-----x-------------x---11-----9-------x9---------|
E|-----x-------------x--9---------------x----------|


************************************

| /   slide up
| \   slide down
| h   hammer-on
| p   pull-off
| ~   vibrato
| +   harmonic
| x   Mute note
| b   Bend
| pb  Pre-bend
| br  Bend release
| pbr Pre-bend release
| brb Bend release bend

************************************

            
            
Suggest correction
Creating personal tab
Creating personal tab
You can edit any tab online and save it as your Personal.

You can edit, replace or remove any tab part or add personal notes – all changes will be seen only by you.

Personal tabs can be accessed anytime from any device, even offline.
Learn more »
Give kudos to tab author, rate the tab!
1 2 3 4 5
comments
print report bad tab
1 comment total.
0 reply
pearldrummr2 25 Jan 04, 2016 12:38 PM

Hey, I confidently figured it out man, if you want to check out what I found

guest
You may want to rate the tab now too:
select rating
Wanna post a correction for this tab? Suggest correction