Oops, an error
Loading. Please wait.

Black Magic bass

version 2
version 2

Whole song

by Slayer
2,870 views 3 this week
1 commentread comment
1 2 3 4 5
1 last vote to show rating
add to favorites
×
Save as Personal and add changes to this tab that will be seen only by you. Learn more ›
×
You can save this tab as Personal to edit and correct it or add notes. All changes will be seen only by you. Learn more »
launch autoscroll
font size
0
reset
guitar tuner
backing track
0:00
0:00
edit
Autoscroll
slow
fast
+/-
esc
set tempo
stop
Author
SLAYER
BLACK MAGIC
TUNING: E.A.D.G
TABBED BY: GNAR_6_KILL


Intro
G|---------------------------------|
D|---------------------------------|
A|-7-7-7-7-7-7-7-7-7-7-7-7-7-7-7-7-|
E|---------------------------------|

G|-------------------|
D|-------------------|
A|-7---7-8---7---3-5-| X4
E|-------------------|

G|------------------------------------|
D|------------------------------------|
A|-7-7-7-7-7-7-7-7-7-7-7-7-7-7-7-7-7-7|
E|------------------------------------|

Intro To Verse
G|-----------------------|
D|-----------------------|
A|-----------------------|
E|---0---0-0-1-0---3-2-1-|

Verse
G|----------------------------------------------------
D|----------------------------------------------------
A|-7---------------7---7---8-7---------------10-9-8-7-
E|---0-0-0-0-0-0-0---0---0-----0-0-0-0-0-0-0----------

G|---------------------------------------------------|
D|---------------------------------------------------|
A|---------------7---7---8-7-----------------------7-|
E|-0-0-0-0-0-0-0---0---0-----0-0-0-0-0-0-0-3-2-1-0---|

G|----------------------------------------------------
D|----------------------------------------------------
A|-7---------------7---7---8-7---------------10-9-8-7-
E|---0-0-0-0-0-0-0---0---0-----0-0-0-0-0-0-0----------

G|-------------------------------------------------|
D|-------------------------------------------------|
A|---------------7---7---8-7-----------------------|
E|-0-0-0-0-0-0-0---0---0-----0-0-0-0-0-0-0-3-2-1-0-|

BRIDGE?
G|-----------------------------------------------------------------|
D|-----------------------------------------------------------------|
A|-----------------------------------------------------------------|
E|-5-5-5-5-5-5-5-5-7-7-7-7-7-7-7-7-2-2-2-2-2-2-2-2-3-3-3-3-3-3-3-3-|

BRIDGE?
G|-------------------------------|
D|-----------------7-----6-----5-|
A|-0-0-0-0-0-0-0-0---0-0---0-0---|
E|-------------------------------|

Solo
G|-----------------------------------------------------------------|
D|-----------------------------------------------------------------|
A|-2-2-2-2-2-2-2-2-1-1-1-1-1-1-1-1---------------------------------|
E|---------------------------------0-0-0-0-0-0-0-0-1-1-1-1-1-1-1-1-|

Another Bridge?
G|-----------------------------------|
D|-----------------------------------|
A|-------------7-8-------------7-8-8-|
E|-0-0-0-0-0-0-----0-0-0-0-0-0-------|

Outro
G|--------------------------------------------------------|
D|--------------------------------------------------------|
A|-7--7--7--7--7--7--7--7--7--8--7--10--------------------|
E|------------------------------------------------------0-|
Suggest correction
Creating personal tab
Creating personal tab
You can edit any tab online and save it as your Personal.

You can edit, replace or remove any tab part or add personal notes – all changes will be seen only by you.

Personal tabs can be accessed anytime from any device, even offline.
Learn more »
Give kudos to tab author, rate the tab!
1 2 3 4 5
comments
print report bad tab
1 comment total.
0 reply
bassmasta.1515 10 Oct 26, 2009 09:39 AM

Dude this tab is 100% perfect!!! Nice job

guest
You may want to rate the tab now too:
select rating
Wanna post a correction for this tab? Suggest correction