Oops, an error
Loading. Please wait.

Blood Red tab

version 2
version 2

Whole song

Interactive

by Slayer
17,056 views 12 this week
2 commentsread comments
1 2 3 4 5
x 10
add to favorites
×
Save as Personal and add changes to this tab that will be seen only by you. Learn more ›
×
You can save this tab as Personal to edit and correct it or add notes. All changes will be seen only by you. Learn more »
launch autoscroll
font size
0
reset
how to read this tab
guitar tuner
edit
Autoscroll
slow
fast
+/-
esc
set tempo
stop
Blood Red
Slayer
Seasons in the Abyss
Tabbed by:Alex Salazar
Tuning= half step

Intro

eb---------------------------------------|
Bb---------------------------------------|
Gb---------------------------------------|
Db-----8-8-8-8---------------------------|
Ab-----7-7-7-7---10---10---10---8-8-8-8--|
Eb-0-0---------0-0--0-0--0-0--0-0-0-0-0--|
   . .         .    .    .    .

eb-----------------------------------|
Bb-----------------------------------|
Gb-----------------------------------|
Db-----8-8-8-8-----------------------|
Ab-----7-7-7-7---10---10---10---6-7--|
Eb-0-0---------0-0--0-0--0-0--0-0-0--|
   . .         .    .    .    .

eb---------------------------------------|
Bb---------------------------------------|
Gb---------------------------------------|
Db-----8-8-8-8---------------------------|
Ab-----7-7-7-7---10---10---10---8-8-8-8--|
Eb-0-0---------0-0--0-0--0-0--0-0-0-0-0--|
   . .         .    .    .    .


eb-----------------------------------|
Bb-----------------------------------|
Gb-----------------------------------|
Db-----8-8-8-8-----------------------|
Ab-----7-7-7-7---10---10-10---6-6-7--|
Eb-0-0---------0-0--0-0--0--0-0-0-0--|
   . .         .    .       .

Main Riff

Both
eb-----------------------------------|x2
Bb-----------------------------------|
Gb-----------------------------------|
Db-------------5---------------------|
Ab-----7-----6---6-5---5-6-5---------|
Eb-00-0--00-0--------6-------6-5-7---|
   .. .  .. .

Guitar 1
eb----------------------------------------|
Bb----------------------------------------|
Gb----------------------------------------|
Db--------------9-------------------------|
Ab-----10-----9---10-9----9-10-9----------|
Eb-00-0---00-0---------10--------10-9-11--|
   .. .   .. .

Guitar 2
eb-----------------------------------|
Bb-----------------------------------|
Gb-----------------------------------|
Db--------------5--------------------|
Ab------7-----6---6-5---5-6-5--------|
Eb-00-0---00-0--------6-------6-5-7--|
   .. .   .. .

Guitar 1
eb---------------------------------|
Bb---------------------------------|
Gb---------------------------------|
Db--------------9-----------3-5----|
Ab-----10-----9---10-9----9-3-5----|
Eb-00-0---00-0---------10---1-3----|
   .. .   .. .

Guitar 2
eb---------------------------------|
Bb---------------------------------|
Gb---------------------------------|
Db-------------5---------3-5-------|
Ab-----7-----6---6-5---5-3-5-------|
Eb-00-0--00-0--------6---1-3-------|
   .. .  .. .

Verse

eb----------------------------------|x3
Bb----------------------------------|
Gb----------------------------------|
Db-------------9---------------10---|
Ab-------------7---------------8----|
Eb-00-000-000-0---00-000-000-00-----|
   .. ... ... .   .. ... ... ..


eb-------------------------------------|
Bb-------------------------------------|
Gb-------------------------------------|
Db-------------9------10-10-9----------|
Ab-------------7-------8--7---10-------|
Eb-00-000-000-0---00-0-----------------|
   .. ... ... .   .. .

Chorus

eb-------------------------------------------------------------------|
Bb-------------------------------------------------------------------|
Gb-------------------------------------------------------------------|
Db-----------------------------------------------5-------------------|
Ab-55-555-555-555-533-333-333-333-3-----7------6---6-5---5-6-5-------|
Eb-33-333-333-333-311-111-111-111-1-00-0---00-0--------6-------6-5-7-|
   .. ... ... ... ... ... ... ... . .. .   .. . 

eb-------------------------------------------------------------------|
Bb-------------------------------------------------------------------|
Gb-------------------------------------------------------------------|
Db-----------------------------------------------5-------------------|
Ab-55-555-555-555-533-333-333-333-3-----7------6---6-5---5-6-5-------|
Eb-33-333-333-333-311-111-111-111-1-00-0---00-0--------6-------6-5-7-|
   .. ... ... ... ... ... ... ... . .. .   .. . 


Guitar 1
eb---------------------------------|
Bb---------------------------------|
Gb---------------------------------|
Db--------------9-----------3-5----|
Ab-----10-----9---10-9----9-3-5----|
Eb-00-0---00-0---------10---1-3----|
   .. .   .. .

Guitar 2
eb---------------------------------|
Bb---------------------------------|
Gb---------------------------------|
Db-------------5---------3-5-------|
Ab-----7-----6---6-5---5-3-5-------|
Eb-00-0--00-0--------6---1-3-------|
   .. .  .. .

Solo Fill
Figure 1
eb---------------------------|x8
Bb---------------------------|
Gb---------------------------|
Db---------------------------|
Ab-444-444-444-5-7-----------|
Eb-222-222-222-3-5-----------|
   ... ... ...
Figure 2
eb----------------------------------------------------|x3
Bb---------------------------------o---------------o--|
Gb----------------------------------------------------|
Db----------------------------------------------------|
Ab-666-666-666-666-555-555-555-555-o444-444-444-5-7o--|
Eb-444-444-444-444-333-333-333-333--222-222-222-3-5---|
   ... ... ... ... ... ... ... ...  ... ... ...

Figure 3
eb-----------|
Bb-----------|
Gb-----------|
Db-----------|
Ab-(6)--(5)--|
Eb-(4)--(3)--|


Order of song
Intro
Main Riff
Verse
Chorus
Verse
Chorus
Solo Fill
Verse
Chorus

Hope it helps
Suggest correction
Creating personal tab
Creating personal tab
You can edit any tab online and save it as your Personal.

You can edit, replace or remove any tab part or add personal notes – all changes will be seen only by you.

Personal tabs can be accessed anytime from any device, even offline.
Learn more »
comments
print report bad tab
2 comments total.
+1 reply
_Xaos_ 10 Mar 26, 2009 02:33 PM

Great tab dude! I see no mistakes here!

0 reply
b.c. warlock926 229 Mar 28, 2009 04:17 PM

Yea i made this a long time ago and i had mistakes. You just happened to look at it when i updated it lol.
Thanks dude i appreciate it

guest
You may want to rate the tab now too:
select rating
Wanna post a correction for this tab? Suggest correction