Oops, an error
Loading. Please wait.

Chemical Warfare Tab

version 1
version 1

Solo

Whole song

Interactive

2,326 views 1 this week
no commentswrite comment
1 2 3 4 5
please rate
add to favorites
launch autoscroll
font size
0
reset
how to read this tab
guitar tuner
Autoscroll
slow
fast
+/-
esc
set tempo
stop
Help us to improve Ultimate-Guitar.com Take our survey!
×
chemical warfare (solo 2 & 3)
album: haunting the chapel

slayer

tabbed by Rudy Guzman

solo 2
    t      t     t               t     t     t
eb:------------------------11b------------------------------------|
Bb:-13-11-13-11-13-11-etc-------13-11-13-11-13-11-etc-------------|
Gb:---------------------------------------------------------------|
Db:---------------------------------------------------------------|
Ab:---------------------------------------------------------------|
Eb:---------------------------------------------------14-17-14-17-|

eb:-------------------------------------14-17-14-17-------------|
Bb:-------------------------------------------------14-17-14-17-|
Gb:------------------------14-16-14-16b-------------------------|
Db:------------14-16-14-16--------------------------------------|
Ab:14-16-14-16--------------------------------------------------|
Eb:-------------------------------------------------------------|

:------------------------------------------------------|
:------------------------------------------------------|
:14-16-14-16-----14-16b~~------------------------------|
:------------16----------------------------------------|
:------------------------------------------------------|
:-------------------------0/7810-7-8-10-9-10-12-9-10-12|


:------------------------------------------------------------------|
:------------------------------------------------------------------|
:------------------------------------------------------------------|
:------------------------------------------------------------------|
:------------------------------------------------------12-13-12-13-|
:10-11-13-10-11-13-11-12-14-11-12-14-12-13-15-12-13-15-------------|

:-------------22b--------16-------17-------------------------------|
:---------------------------15-------16----------------------------|
:------------------14-14-------14-------15--12-14-12-14------------|
:12-13-12-13--------------------------------------------12-14-12-14|
:------------------------------------------------------------------|
:------------------------------------------------------------------|



:------------------------------------------------------------|
:--------------------20b~~~----------------------------------|
:------------------------------------------------------------|
:------------------------------------------------------------|
:12-14-12-14-------------------------------------------------|
:------------15-12-------------------------------------------|


solo 3

:-------------------------------------------------------------22b-|
:-----------------------------------------------------------------|
:9h10h12-11h12h14-12h13h15-14-15-17-16-17-19-18-19-21-19-20-22----|
:-----------------------------------------------------------------|
:-----------------------------------------------------------------|
:-----------------------------------------------------------------|



play 6 times
:19-21-19-22-19-21-|-19-20-22-20-19-------------------------|
:------------------|----------------21-18-19-18-------------|
:------------------|----------------------------21-18-19-18-|
:------------------|----------------------------------------|
:------------------|----------------------------------------|
:------------------|----------------------------------------|



                    ----------------
:-----------------17b-17-17-17-17-17-13-14-16-14-13-14-16-14-13-etc---|
:---------------------------------------------------------------------|
:---------------------------------------------------------------------|
:21-18-19-18----------------------------------------------------------|
:------------21\------------------------------------------------------|
:---------------------------------------------------------------------|

:-13-14-16-18-13-14-13------------------------------------------------------------|
:----------------------17-14-15-14------------------------------------------------|
:----------------------------------17-14-15-14------------------------------------|
:----------------------------------------------17-14-15-14------------------------|
:----------------------------------------------------------17-14-15-14------------|
:----------------------------------------------------------------------17-14-15-14|


                                                            bar
:---------------------------------------------------------------------|
:-----------------------------------------------------------17b~~-----|
:----------------------------------------------12-14-12-14--16b~~-----|
:----------------------------------12-14-12-14------------------------|
:----------------------12-14-12-14------------------------------------|
:9-12-9-12-12-15-12-15------------------------------------------------|
Suggest correction new What's this?
You can suggest a correction to this tab. Community and Mods will review your correction and vote to approve or reject it.
comments
We did not receive enough feedback on this tab! Please rate:
print report bad tab
1 2 3 4 5
guest
You may want to rate the tab now too:
select rating
Please do not post tabs as comments. Select "correction" instead!