Oops, an error
Loading. Please wait.

Chemical Warfare tab

version 3
version 3

Whole song

Interactive

by Slayer
16,933 views 12 this week
2 commentsread comments
1 2 3 4 5
x 12
add to favorites
×
Save as Personal and add changes to this tab that will be seen only by you. Learn more ›
×
You can save this tab as Personal to edit and correct it or add notes. All changes will be seen only by you. Learn more »
launch autoscroll
font size
0
reset
how to read this tab
guitar tuner
backing track
0:00
0:00
edit
Autoscroll
slow
fast
+/-
esc
set tempo
stop
Intro
  Fast Rock Q=200
  N.C(E)
 4/4
  Gtr I
     PM--------------------------------------------------------|
  Q  E E E E E E   S S S S E S S S S E S S S S   E E E E E E E E
|----------------|-----------------------------|-----------------|
|----------------|-----------------------------|-----------------|
|----------------|-----------------------------|-----------------|
|----------------|-----------------------------|-----------------|
|----------------|-----------------------------|-----------------|
|----0-0-0-0-0-0-|-0-0-0-0-0-0-0-0-0-0-0-0-0-0-|-0-0-0-0-0-0-0-0-|


  (E)                             N.C.(E)
                                  Gtrs I, II
  PM-----------------------------------------------
  S S S S E S S S S E S S S S     E E E E E E E E
|-----------------------------||------------------|
|-----------------------------||o-----------------|
|-----------------------------||------------------|
|-----------------------------||------------------|
|-----------------------------||o-----------------|
|-0-0-0-0-0-0-0-0-0-0-0-0-0-0-||--0-0-0-0-0-0-0-0-|


 ---------------------------|
  S S S S E S S S S E S S S S   6x
|-------------------------------||
|------------------------------o||
|-------------------------------||
|-------------------------------||
|------------------------------o||
|-0-0-0-0-0-0-0-0-0-0-0-0-0-0---||


                                   F
  (E)
  Gtr I
   5_________________/0_______|
   H..               +E        a
|-<7>---------------(<7>)----(<7>)-|
|-<7>---------------(<7>)----(<7>)-|
|----------------------------------|
|----------------------------------|
|----------------------------------|
|----------------------------------|
|
| Gtr II
|  PM       TPTPTPTP  TP  TP
|  E   H    S S S S   S   S
|----------------------------------|
|----------------------------------|
|----------------------------------|
|----------------------------------|
|-----------xsxsxsxs==xs==x-------|
|--0--------xsxsxsxs==xs==x-------|


 aster Q=212
    N.C.(E)                           (G)             (F)
    PM------------------------------------------------------|
    S S S S S S S S S S S S S S S S   S S S S S S S S S S S S E E  4x
||----------------------------------|------------------------------||
||o---------------------------------|-----------------------------o||
||----------------------------------|------------------------------||
||----------------------------------|---------------------------2--||
||o---------------------------------|-------------------------1---o||
||--0-0-0-0-0-0-0-0-0-0-0-0-0-0-0-0-|-3-3-3-3-3-3-3-3-1-1-1-1------||
|
|   PM------------------------------------------------------|
|   S S S S S S S S S S S S S S S S   S S S S S S S S S S S S E E  4x
||----------------------------------|------------------------------||
||o---------------------------------|-----------------------------o||
||----------------------------------|------------------------------||
||----------------------------------|---------------------------2--||
||o---------------------------------|-------------------------1---o||
||--0-0-0-0-0-0-0-0-0-0-0-0-0-0-0-0-|-3-3-3-3-3-3-3-3-1-1-1-1------||


   1st and 2nd Verses
    $
    N.C.(E)                           (G)                     N.C.
    Gtrs I, II
    PM------------------------------------------------------|
    S S S S S S S S S S S S S S S S   S S S S S S S S S S S S E E   8x
||----------------------------------|-------------------------------||
||o---------------------------------|------------------------------o||
||----------------------------------|-------------------------------||
||----------------------------------|---------------------------2---||
||o---------------------------------|-------------------------1----o||
||--0-0-0-0-0-0-0-0-0-0-0-0-0-0-0-0-|-3-3-3-3-3-3-3-3-1-1-1-1-------||


 Chorus
  $$
  Bb5               A5BbA5  F#5                   A5
                    |-3-|
  W          +H     Q Q Q   W          +H     +E  Q.
|----------|--------------|----------|------------------|
|----------|--------------|----------|------------------|
|----------|--------------|----------|------------------|
|-3--------|-(3)----2-3-2-|----------|------------2-----|
|-1--------|-(1)----0-1-0-|-4--------|-(4)----(4)-0-----|
|----------|--------------|-2--------|-(2)----(2)-------|


  Bb5        A5BbA5  BbA5  F#5                   A5
             |-3-| |-3-|
  W          Q Q Q Q Q Q   W          +H     +E  Q.
|----------|-------------|----------|-----------------|
|----------|-------------|----------|-----------------|
|----------|-------------|----------|-----------------|
|-3--------|-2-3-2-2-3-2-|----------|------------2----|
|-1--------|-0-1-0-0-1-0-|-4--------|-(4)----(4)-0----|
|----------|-------------|-2--------|-(2)----(2)------|


  Bb5               A5BbA5  F#5                   A5
                    |-3-|
  W          +H     Q Q Q   W          +H     +E  Q.
|----------|--------------|----------|------------------|
|----------|--------------|----------|------------------|
|----------|--------------|----------|------------------|
|-3--------|-(3)----2-3-2-|----------|------------2-----|
|-1--------|-(1)----0-1-0-|-4--------|-(4)----(4)-0-----|
|----------|--------------|-2--------|-(2)----(2)-------|


                                          To Dbl. Coda
  Bb5        A5BbA5  BbA5  F#5                   G5
             |-3-| |-3-|
  W          Q Q Q Q Q Q   W          +H     +E  E Q
|----------|-------------|----------|------------------|
|----------|-------------|----------|------------------|
|----------|-------------|----------|------------------|
|-3--------|-2-3-2-2-3-2-|----------|------------------|
|-1--------|-0-1-0-0-1-0-|-4--------|-(4)----(4)-5-5--|
|----------|-------------|-2--------|-(2)----(2)-3-3--|


  To Coda
  E5               N.C.(E)
  Gtr I
  7
                   PM-------------------------------
  W                S S S S S S S S S S S S S S S S
|--------------||----------------------------------|
|--------------||o---------------------------------|
|--------------||----------------------------------|
|--------------||----------------------------------|
|--------------||o---------------------------------|
|-0------------||--0-0-0-0-0-0-0-0-0-0-0-0-0-0-0-0-|
|
| Gtr II
|                  PM-------------------------------
| E  H..           S S S S S S S S S S S S S S S S
|--------------||----------------------------------|
|--------------||o---------------------------------|
|--------------||----------------------------------|
|--------------||----------------------------------|
|-2------------||o---------------------------------|
|-0------------||--0-0-0-0-0-0-0-0-0-0-0-0-0-0-0-0-|


 1.,2.,3.                        4.
                             D.S. al Coda
  (G)             (F)     N.C.    G5   F5
 -----------------------|
  S S S S S S S S S S S S E E  4x H    H
|------------------------------||------------||
|-----------------------------o||------------||
|------------------------------||------------||
|---------------------------2--||------------||
|-------------------------1---o||-5----3-----||
|-3-3-3-3-3-3-3-3-1-1-1-1------||-3----1-----||
|
|-----------------------|
| S S S S S S S S S S S S E E  4x H    H
|------------------------------||------------||
|-----------------------------o||------------||
|------------------------------||------------||
|---------------------------2--||------------||
|-------------------------1---o||-5----3-----||
|-3-3-3-3-3-3-3-3-1-1-1-1------||-3----1-----||


   Breakdown
    Half-time feel Q=132
    &
    N.C.(E) F5 E5(E)             F5   (E)     F5 E5(E)     N.C.
    Gtrs I, II
    PM----|      PM------------|      PM----|      PM----|         PM|
    S S S S  S S S S S S S S S S  E   S S S S  S S S S S S S S S S S S  4x
||----------------------------------|-----------------------------------||
||o---------------------------------|----------------------------------o||
||----------------------------------|-----------------------------------||
||----------10s9-----------------10-|---------10s9----------------------||
||o----------8s7------------------8-|----------8s7-------------7-6-----o||
||--0-0-0-0------0-0-0-0-0-0-0-0----|-0-0-0-0------0-0-0-0-7-8-----8-7--||


    (E)     BbA5(E)             Bb5 (E)     BbA5(E)     N.C.
    PM----|     PM------------|     PM----|     PM----|         PM|
    S S S S S S S S S S S S S S E   S S S S S S S S S S S S S S S S
||--------------------------------|----------------------------------||
||o-------------------------------|---------------------------------o||
||--------------------------------|----------------------------------||
||--------------------------------|----------------------------------||
||o---------8s7-----------------8-|---------8s7-------------0-------o||
||--0-0-0-0-6s5-0-0-0-0-0-0-0-0-6-|-0-0-0-0-6s5-0-0-0-0-1-2---4-2-1--||


    (E)     D5Db(E)             D5  (E)     D5Db(E)     N.C.
    PM----|     PM------------|     PM----|     PM----|         PM|
    S S S S S S S S S S S S S S E   S S S S S S S S S S S S S S S S
||--------------------------------|----------------------------------||
||o-------------------------------|---------------------------------o||
||--------------------------------|----------------------------------||
||----------7s6-----------------7-|---------7s6----------------------||
||o---------5s4-----------------5-|---------5s4-------------4-3-----o||
||--0-0-0-0-----0-0-0-0-0-0-0-0---|-0-0-0-0-----0-0-0-0-4-5-----5-4--||


 Intro/Recap
  Tempo I Q=200
  E5
  Gtr I
        PM---------------------------------------|
  E E   E E E E E E   S  S S S E S S S S E S S S S
|-------------------|-------------------------------|
|-------------------|-------------------------------|
|-------------------|-------------------------------|
|-------------------|-------------------------------|
|-------------------|-------------------------------|
|-0-0---0-0-0-0-0-0-|-0--0-0-0-0-0-0-0-0-0-0-0-0-0--|
|
| Gtr II
|                                          TPTPTPTP
| E H..               H.                   S S S S
|-------------------|-------------------------------|
|-------------------|-------------------------------|
|-------------------|-------------------------------|
|-------------------|-------------------------------|
|-2-----------------|----------------------xsxsxsx-|
|-0-----------------|----------------------xsxsxsx-|


    N.C.(E)                                           E5
        PM--------------------------------------|
    E E E E E E E E   S S S S E S S S S E S S S S  5x E H..
||------------------|------------------------------||----------||
||o-----------------|-----------------------------o||----------||
||------------------|------------------------------||----------||
||------------------|------------------------------||----------||
||o-----------------|-----------------------------o||-2--------||
||--0-0-0-0-0-0-0-0-|-0-0-0-0-0-0-0-0-0-0-0-0-0-0--||-0--------||
|
|       PM--------------------------------------|
|   E E E E E E E E   S S S S E S S S S E S S S S  5x E H..
||------------------|------------------------------||----------||
||o-----------------|-----------------------------o||----------||
||------------------|------------------------------||----------||
||------------------|------------------------------||----------||
||o-----------------|-----------------------------o||-2--------||
||--0-0-0-0-0-0-0-0-|-0-0-0-0-0-0-0-0-0-0-0-0-0-0--||-0--------||


   Bridge
    Tempo II Q=212
    C#5
     PM----------------------------------------------
     S  S  S  S  S  S  S  S  S  S  S  S  S  S  S  S
||--------------------------------------------------|
||o-------------------------------------------------|
||--------------------------------------------------|
||--------------------------------------------------|
||o-------------------------------------------------|
||---9--9--9--9--9--9--9--9--9--9--9--9--9--9--9--9-|
|
|    PM----------------------------------------------
|    S  S  S  S  S  S  S  S  S  S  S  S  S  S  S  S
||--------------------------------------------------|
||o-------------------------------------------------|
||--13-13-13-13-13-13-13-13-13-13-13-13-13-13-13-13-|
||--11-11-11-11-11-11-11-11-11-11-11-11-11-11-11-11-|
||o-------------------------------------------------|
||--------------------------------------------------|


                          G5 C#5      B#5
 ----------------------|
   S  S  S  S  S  S  S  S  E  Q        E  3x
|-----------------------------------------||
|----------------------------------------o||
|-----------------------------------------||
|-------------------------12--------------||
|-------------------------10-11-------10-o||
|--9--9--9--9--9--9--9--9-----9--------8--||
|
|----------------------|
|                          |---3----|
|  S  S  S  S  S  S  S  S  Q     Q  Q     3x
|-----------------------------------------||
|-------------------------15-------------o||
|-13-13-13-13-13-13-13-13-12----13-14-----||
|-11-11-11-11-11-11-11-11-------11-12-----||
|----------------------------------------o||
|-----------------------------------------||


  C#5                                               G5 F#5F5 C#5 D#D5
  Gtr III
   W                                                 H        Q.      S  S
|-------------------------------------------------|------------------------||
|-------------------------------------------------|---------------------14-||
|-------------------------------------------------|------------------13----||
|-------------------------------------------------|------------------------||
|-------------------------------------------------|------------------------||
|-------------------------------------------------|------------------------||
|
| Gtr I
|  PM------------------------------------------|
|                                                    |--3--|  |-3--|
|  S  S  S  S  S  S  S  S  S  S  S  S  S  S  S  S    Q  Q  Q  Q  Q Q
|-------------------------------------------------|------------------------||
|-------------------------------------------------|------------------------||
|-------------------------------------------------|------------------------||
|-------------------------------------------------|-12-11-10-----8-7-------||
|-------------------------------------------------|-10--9--8-11--6-5-------||
|--9--9--9--9--9--9--9--9--9--9--9--9--9--9--9--9-|-----------9------------||
|
| Gtr II
|  PM------------------------------------------|
|                                                    |--3--|  |-3--|
|  S  S  S  S  S  S  S  S  S  S  S  S  S  S  S  S    Q  Q  Q  Q  Q Q
|-------------------------------------------------|------------------------||
|-------------------------------------------------|------------------------||
|-13-13-13-13-13-13-13-13-13-13-13-13-13-13-13-13-|------------------------||
|-11-11-11-11-11-11-11-11-11-11-11-11-11-11-11-11-|-12-11-10-----8-7-------||
|-------------------------------------------------|-10--9--8-11--6-5-------||
|-------------------------------------------------|-----------9------------||


 Guitar Solo
  N.C.(C#)
      T          T          T         T       T          T          T          T       T
   |--------6---------|  |--------5--------|  |--------6---------|  |--------6---------|
   S  S    S  S  S    S  S  S    S    S    S  S  S    S  S  S    S  S  S    S  S  S    S
|-12-21p==16p12-21p==12h16-21p==12---21p==16-21p12h==16-21p12h==16-21p16p==12-21p16---21p=|
|-----------------------------------------------------------------------------------------|
|-----------------------------------------------------------------------------------------|
|-----------------------------------------------------------------------------------------|
|-----------------------------------------------------------------------------------------|
|-----------------------------------------------------------------------------------------|
|
| Gtrs I, II
|  PM-------------------------------------------------------------------------------|
|  S    S     S    S     S    S    S    S     S    S     S    S     S    S     S    S
|-----------------------------------------------------------------------------------------|
|-----------------------------------------------------------------------------------------|
|-----------------------------------------------------------------------------------------|
|-----------------------------------------------------------------------------------------|
|-----------------------------------------------------------------------------------------|
|--9----9-----9----9-----9----9----9----9-----9----9-----9----9-----9----9-----9----9-----|


  (C#)                                        G5       C#5                  B#5
           T     T          T          T          T     T           T           T
   |--------6---------|  |--------6---------|  |------6-------|  |---------7----------|
   S  S    S  S  S    S  S  S    S  S  S    S  S  S  S  S  S  S  S  S  S  S     S  S  S
|-12h16---21p12-21p==12h16-21p==12h16-21p==16p12-21p16-21p12s13h16-21p16p13----21p13h17-|
|---------------------------------------------------------------------------------------|
|---------------------------------------------------------------------------------------|
|---------------------------------------------------------------------------------------|
|---------------------------------------------------------------------------------------|
|---------------------------------------------------------------------------------------|
|
|  PM------------------------------------|
|  S    S     S    S     S    S     S    S     E        Q                    E
|---------------------------------------------------------------------------------------|
|---------------------------------------------------------------------------------------|
|---------------------------------------------------------------------------------------|
|---------------------------------------------12----------------------------------------|
|---------------------------------------------10-------11-------------------10----------|
|--9----9-----9----9-----9----9-----9----9--------------9--------------------8----------|


  (C#)
   T        T           T     T                    T         T       T          T       T
                           |--------5--------|  |--------5--------|  |--------6---------|
   T  T  T  T  T  T  T  T  S  S    S    S    S  S  S    S    S    S  S  S    S  S  S    S
|-22p18p17-22p15h17h19-21p17-20p==18h==19p==16---------------------------------------------|
|----------------------------------------------17-24p==21---23p==18-23p20p==18-22p18---22p=|
|------------------------------------------------------------------------------------------|
|------------------------------------------------------------------------------------------|
|------------------------------------------------------------------------------------------|
|------------------------------------------------------------------------------------------|
|
|  PM--------------------------------------------------------------------------------|
|  S     S     S     S     S    S    S    S     S    S    S    S     S    S     S    S
|------------------------------------------------------------------------------------------|
|------------------------------------------------------------------------------------------|
|------------------------------------------------------------------------------------------|
|------------------------------------------------------------------------------------------|
|------------------------------------------------------------------------------------------|
|--9-----9-----9-----9-----9----9----9----9-----9----9----9----9-----9----9-----9----9-----|


  (C#)                           G5 C#5   B#5
           T         T                 TP
   |--------5--------|
   S  S    S    S    S  E    E    E  E Q
|---------------------------15---15-14-------|
|-17s15---21p==17---21p15---15---15-14-5/----|
|--------------------------------------------|
|--------------------------------------------|
|--------------------------------------------|
|--------------------------------------------|
|
|  PM--------------------------|
|  S    S    S    S     S S  S S  E  Q     E
|--------------------------------------------|
|--------------------------------------------|
|--------------------------------------------|
|--------------------------------12----------|
|--------------------------------10-11----10-|
|--9----9----9----9-----9-9--9-9-----9-----8-|


  (C#)                                                                    G5   C#5     B#5
                    5__________________________________|
                                               ~~~~~~~~~~~~~
   E        +E     +Q          +Q.            +E       +H                  S S  S S  E  S  S
|---------------------------------------------------|----------------------------------------|
|---------------------------------------------------|----------------------9-9----9-10-------|
|-11b13====(11)---(11)--------(11)-----------(11)---|-(11)r--------------------11------10-10-|
|---------------------------------------------------|----------------------------------------|
|---------------------------------------------------|----------------------------------------|
|---------------------------------------------------|----------------------------------------|
|
|  PM-------------------------------------------------------------------|
|  S     S   S  S   S   S S S   S  S S S S S   S  S     S   S S S S S S S  E    Q       E
|---------------------------------------------------|----------------------------------------|
|---------------------------------------------------|----------------------------------------|
|---------------------------------------------------|----------------------------------------|
|---------------------------------------------------|---------------------12-----------------|
|---------------------------------------------------|---------------------10---11------10----|
|--9-----9---9--9---9---9-9-9---9--9-9-9-9-9---9--9-|---9---9-9-9-9-9-9-9-------9-------8----|


  (C#)
                       |-------5--------|  |---3----|
   S  S  S S S  S S S  S  S    S    S   S  E    E   E
|-------------------------------------------------------|
|----------9-9------------------------------------------|
|-10-10-11-----11-9-9-----------------------------------|
|---------------------12-12---12---12---9-12--------9---|
|----------------------------------------------12-------|
|-------------------------------------------------------|
|
|  PM-------------------------------------------------|
|  S  S  S S S  S S S  S    S    S    S    S S    S   S
|-------------------------------------------------------|
|-------------------------------------------------------|
|-------------------------------------------------------|
|-------------------------------------------------------|
|-------------------------------------------------------|
|--9--9--9-9-9--9-9-9--9----9----9----9----9-9----9---9-|


  G5          F#5     F5
           ~~~~~~~~~~~
   E      +E      +H            +Q
|-------------------------------------||
|-------------------------------------||
|-------------------------------------||
|-------------------------------------||
|-11b12==(11)----(11)----------(11)r--||
|-------------------------------------||
|
|  |---------3---------|  |3|
|  Q           Q       Q  Q H
|-------------------------------------||
|-------------------------------------||
|-------------------------------------||
|-12----------11------10----8--------||
|-10-----------9-------8-11-6--------||
|-------------------------9-----------||


   3rd Verse
    A5        G#5 (A)                             Eb5   D5
        PM--|   PM------------------------------|         PM----|
    E S S S S E S S S S S S S S   S S S S S S S S S +S  E S S S S
||------------------------------|---------------------------------|
||o-----------------------------|---------------------------------|
||--9-9-9-----8-----------------|---------------------------------|
||--7-7-7-----6-----------------|-----------------8-(8)s7---------|
||o-------0-0---0-0-0-0-0-0-0-0-|-0-0-0-0-0-0-0-0-6-(6)s5-0-0-0-0-|
||------------------------------|---------------------------------|
|
|       PM--|   PM------------------------------|         PM----|
|   E S S S S E S S S S S S S S   S S S S S S S S S +S  E S S S S
||------------------------------|---------------------------------|
||o-----------------------------|---------------------------------|
||--9-9-9-----8-----------------|---------------------------------|
||--7-7-7-----6-----------------|-----------------8-(8)s7---------|
||o-------0-0---0-0-0-0-0-0-0-0-|-0-0-0-0-0-0-0-0-6-(6)s5-0-0-0-0-|
||------------------------------|---------------------------------|


  E5        (Bb)
    PM------------------------|
  E S S S S S S S S S S S S S S
|----------------------------------|
|----------------------------------|
|----------------------------------|
|-9--------------------------------|
|-7-0-0-0-0------------------------|
|-----------6-6-6-6-6-6-6-6-6-6----|
|
|   PM------------------------|
| E S S S S S S S S S S S S S S
|----------------------------------|
|----------------------------------|
|----------------------------------|
|-9--------------------------------|
|-7-0-0-0-0------------------------|
|-----------6-6-6-6-6-6-6-6-6-6----|


  1.,2.,3.                 4.
  (Bb)            G5A5(E)      (Bb)            G5   A5(E)
                               Gtr III
                               <
  PM------------|
                  |-3-|
  S S S S S S S S Q Q Q  4x    H               +Q..      S
|------------------------||-||-9---------------(9)----------||
|-----------------------o||-||------------------------------||
|------------------------||-||--------------------------15h=||
|-------------------2----||-||------------------------------||
|-----------------5-0---o||-||-0----------------------------||
|-6-6-6-6-6-6-6-6-3---0--||-||------------------------------||
|
|                              Gtrs I, II
| PM------------|              PM------------|
|                 |-3-|                         |--3--|
| S S S S S S S S Q Q Q  4x    S S S S S S S S  Q   Q Q
|------------------------||-||------------------------------||
|-----------------------o||-||------------------------------||
|------------------------||-||------------------------------||
|-------------------2----||-||----------------------2-------||
|-----------------5-0---o||-||------------------5---0-------||
|-6-6-6-6-6-6-6-6-3---0--||-||-6-6-6-6-6-6-6-6--3-----0-----||


 Guitar Solo II
  (E)                                    (G)                      (F)        N.C.
   ~~~~~~
   W                                       E        +H                 +E     +E   +S   S
|--------------------------------------|--------------------------------------------------|
|--------------------------------------|--------------------------------------------------|
|-17tr15-------------------------------|-h17b20====(17)---------------(17)---(17)r(17)p15-|
|--------------------------------------|--------------------------------------------------|
|--------------------------------------|--------------------------------------------------|
|--------------------------------------|--------------------------------------------------|
|
|  PM----------------------------------------------------------------------|
|  S     S S S S S S S S S S S S S S S     S     S   S  S S S S S S S   S  S   E    E
|--------------------------------------|--------------------------------------------------|
|--------------------------------------|--------------------------------------------------|
|--------------------------------------|--------------------------------------------------|
|--------------------------------------|--------------------------------------------2-----|
|--------------------------------------|---------------------------------------1----------|
|--0-----0-0-0-0-0-0-0-0-0-0-0-0-0-0-0-|---3-----3---3--3-3-3-3-3-1-1---1--1--------------|


  (E)
   ~~~~~~~~~~~~~~~~~~~~~~~~~~~~~~~~
   S  S  S  S  S  S  S  S  S  S  Q        +E
|-------------------------------------------------|
|-------------------------------------------------|
|-17p15h17p15h17p15h17p15h17p15h17-------(17)----|
|-------------------------------------------------|
|-------------------------------------------------|
|-------------------------------------------------|
|
|  PM------------------------------------------|
|  S  S  S  S  S  S  S  S  S  S  S S S S   S   S
|-------------------------------------------------|
|-------------------------------------------------|
|-------------------------------------------------|
|-------------------------------------------------|
|-------------------------------------------------|
|--0--0--0--0--0--0--0--0--0--0--0-0-0-0---0---0--|


  (G)                  (F)     N.C.      (E)
                                                                                 ~~~~~~~~~
                                                      |----3----|
   H..                            S  S    S  S  S  S  E    E    E    +E     E    Q
|--------------------------------------|-------------------------------------------------|
|--------------------------------------|-------------------------------------------------|
|--------------------------------------|-----------------------------------12---14-------|
|--------------------------------------|----------12-14---12h==14---(14)-----------------|
|--------------------------------14p12h|=14p12h14----------------------------------------|
|-10tr12-------------------------------|-------------------------------------------------|
|
|  PM------------------------|            PM----------------------------------------------
|  S     S S S S S S S S S S S E  E       S  S  S  S  S S    S    S   S  S  S S  S S S S
|--------------------------------------|-------------------------------------------------|
|--------------------------------------|-------------------------------------------------|
|--------------------------------------|-------------------------------------------------|
|---------------------------------2----|-------------------------------------------------|
|------------------------------1-------|-------------------------------------------------|
|--3-----3-3-3-3-3-3-3-1-1-1-1---------|--0--0--0--0--0-0----0----0---0--0--0-0--0-0-0-0-|


  (G)                        (F)         N.C.
 ~~~~~~
   +E     +E      S  S  S  S  S  S  S  S  S  S S  S
|----------------------15-15-15-17-15-17-15------------|
|----------------17-17----------------------17---14----|
|-(14)---(14)-----------------------------------------|
|------------------------------------------------------|
|------------------------------------------------------|
|------------------------------------------------------|
|
|-------------------------------------|
|   S  S   S   S  S  S  S  S  S  S  S  S  E    E
|------------------------------------------------------|
|------------------------------------------------------|
|------------------------------------------------------|
|----------------------------------------------2-------|
|-----------------------------------------1------------|
|---3--3---3---3--3--3--3--3--1--1--1--1---------------|


  (E)
   S  S  E    S  S  S  S  S  S  S  S  E        +E
|-----------------------------------------------------|
|-16-14------14---------------------------------------|
|-------16------16-14-16p14----14-16-16b18====(16)r---|
|---------------------------16------------------------|
|-----------------------------------------------------|
|-----------------------------------------------------|
|
|  PM--------------------------------------------------
|  S  S  S S  S  S  S  S  S  S  S  S  S     S   S   S
|-----------------------------------------------------|
|-----------------------------------------------------|
|-----------------------------------------------------|
|-----------------------------------------------------|
|-----------------------------------------------------|
|--0--0--0-0--0--0--0--0--0--0--0--0--0-----0---0---0-|


  (G)                          (F)      N.C.   (E)
   ~~~~~~~~~~~~~                TP       TP    PM---------------------------------------|
   E        +E     +Q           E   E    E E   E    S  S  S  S  S  S E    S  S  S  S  S  S
|--------------------------------------------|-----------------------------------------------|
|--------------------------------------------|-----------------------------------------------|
|-16b18====(16)---(16)r---------------------|-----------------------------------------------|
|--------------------------------------------|-----------------------------------------------|
|------------------------------/x-------/x---|-----------------------------------------------|
|--------------------------------------------|-7---10-10-10-10-10-10-7---10-10-10-10-10-10---|
|
|-------------------------------------|        PM---------------------------------------|
|  S     S   S  S   S    S S S  S S S S  E E   S S  S  S  S  S  S  S S S  S  S  S  S  S  S
|--------------------------------------------|-----------------------------------------------|
|--------------------------------------------|-----------------------------------------------|
|--------------------------------------------|-----------------------------------------------|
|------------------------------------------2-|-----------------------------------------------|
|----------------------------------------1---|-----------------------------------------------|
|--3-----3---3--3---3----3-3-3--1-1-1-1------|-0-0--0--0--0--0--0--0-0-0--0--0--0--0--0--0---|


  (G)                     (F)        N.C.         N.C.
   PM---------------------|                                           TP             ~~~~~~~~~~
   S  S  S  S  S  S  S  S  E    S  E    S  S  S    +S   S  S  S  E    Q.             Q
|-----------------------------------------------|---------------------------------------------|
|-----------------------------------------------|---------------------------------------------|
|-----------------------------------------------|---------------------------------------------|
|-----------------------------------------------|----------------------------------[14]-------|
|-----------------------------------------------|------12-14-12-14---14-----------------------|
|-12-12-12-12-12-12-12-12-12---14p12---14p12h14-|-(14)----------------------------------------|
|
|  PM-----------------------------|                 PM-----------------------------------------
|  S  S  S  S  S  S  S  S  S S  S  S E     E        S   S  S  S  S S  S  S S S S S   S  S S S
|-----------------------------------------------|---------------------------------------------|
|-----------------------------------------------|---------------------------------------------|
|-----------------------------------------------|---------------------------------------------|
|------------------------------------------2----|---------------------------------------------|
|------------------------------------1----------|---------------------------------------------|
|--3--3--3--3--3--3--3--3--1-1--1--1------------|---0---0--0--0--0-0--0--0-0-0-0-0---0--0-0-0-|


  (G)                        (F)          N.C.
 ~~~~~~~~
                               |------3------|
    +Q           +Q            Q      Q      Q
|-------------------------------------------16---|
|------------------------------------------------|
|----------------------------/14-----14----------|
|-([14])-------([14])---------------------------|
|------------------------------------------------|
|------------------------------------------------|
|
|---------------------------------------|
|    S   S S S    S    S S S   S S S    S E    E
|------------------------------------------------|
|------------------------------------------------|
|------------------------------------------------|
|----------------------------------------------2-|
|-----------------------------------------1------|
|----3---3-3-3----3----3-3-3---1-1-1----1--------|


  (E)
   E    E.      E.      E    E    +Q
|--------------17----------------------------|
|-15-------------------16--------------------|
|------15-------------------16---(16)-------|
|--------------------------------------------|
|--------------------------------------------|
|--------------------------------------------|
|
|  PM-----------------------------------------
|  S S  S  S S  S  S S  S S  S S   S   S S S
|--------------------------------------------|
|--------------------------------------------|
|--------------------------------------------|
|--------------------------------------------|
|--------------------------------------------|
|--0-0--0--0-0--0--0-0--0-0--0-0---0---0-0-0-|


  (G)                      (F)         N.C.
    S  S  S  S  S  S  S  S  S  S  S  S  E  E
|---------------------------------------------|
|---------------------------------------------|
|-/12-14-14-14-------12-----------------------|
|--------------12-14----14-12-14-12-------12-|
|-----------------------------------14-14-----|
|---------------------------------------------|
|
|-----------------------------------|
|   S  S  S  S  S  S  S  S  S  S  S  S  E  E
|---------------------------------------------|
|---------------------------------------------|
|---------------------------------------------|
|------------------------------------------2--|
|---------------------------------------1-----|
|---3--3--3--3--3--3--3--3--1--1--1--1--------|


  (E)
                                                   ~~~~~~
  E    S  +S   e    Q            +E      E        +E
|------------------14b17========(14)r---14b17====(14)---|
|-----10-(10)s13----------------------------------------|
|-------------------------------------------------------|
|-------------------------------------------------------|
|-------------------------------------------------------|
|-------------------------------------------------------|
|
| PM-----------------------------------------------------
| S S  S   S   S S  S     S S S   S   S  S     S   S  S
|-------------------------------------------------------|
|-------------------------------------------------------|
|-------------------------------------------------------|
|-------------------------------------------------------|
|-------------------------------------------------------|
|-0-0--0---0---0-0--0-----0-0-0---0---0--0-----0---0--0-|


                                         Solo Switch
  (G)                (F)           N.C.   Bb5
 ~~~~~~~~~~~~~~~~~~~~~~~~~~
   +H                 +E     +E    Q      E  S  S  E  S  S  S  S  S  S  S  S  S  S
|-(14)---------------(14)r==(14)-------||---------------------------------------------|
|--------------------------------------||---------------------------------------------|
|--------------------------------------||---------------------------------------16----|
|--------------------------------------||---15-17-15-15-15-17-19-19-19-17-19-19-------|
|--------------------------------------||---------------------------------------------|
|--------------------------------------||---------------------------------------------|
|
|--------------------------------|
|   S  S S S S S S S   S  S   S  S E E    W
|--------------------------------------||---------------------------------------------|
|--------------------------------------||---------------------------------------------|
|--------------------------------------||---------------------------------------------|
|------------------------------------2-||-3-------------------------------------------|
|----------------------------------1---||-1-------------------------------------------|
|---3--3-3-3-3-3-3-3---1--1---1--1-----||---------------------------------------------|


                           A5       Bb5     A5
   S   S  S  S  S  S  S  S  S  S  S    E  S    E
|------------------------------------------------|
|--------------------------19-19-21---21-20---19-|
|-17--18-18-17S19-19-19-19-----------------------|
|------------------------------------------------|
|------------------------------------------------|
|------------------------------------------------|
|
|                           |-------3-------|
| +H                        Q       Q       Q
|------------------------------------------------|
|------------------------------------------------|
|------------------------------------------------|
|-(3)-----------------------2-------3-------2----|
|-(1)-----------------------0-------1-------0----|
|------------------------------------------------|


  F#5                                                     A5
                  ~~~~~~~~~~~~~~~~~~~~~~
   Q.       +E    E      +Q    E    +Q.    E   T   +T   S  +S   E  S  S  S
|-24b26====(24)r-24b26==(24)--24-|-(24)---24r-21--(21)s14-(14)s21-21-18-18--|
|--------------------------------|------------------------------------------|
|--------------------------------|------------------------------------------|
|--------------------------------|------------------------------------------|
|--------------------------------|------------------------------------------|
|--------------------------------|------------------------------------------|
|
|  W                                +H        +E            Q.
|--------------------------------|------------------------------------------|
|--------------------------------|------------------------------------------|
|--------------------------------|------------------------------------------|
|--------------------------------|--------------------------2---------------|
|--4-----------------------------|--(4)-------(4)-----------0---------------|
|--2-----------------------------|--(2)-------(2)---------------------------|


  Bb5
   S  S  S  S  S  S  S  S  S  S  S  S  S  S  S  a  S
|-21-20-18-21p20p18-22-22-21-18-21-21-18-22-22-18h21-|
|----------------------------------------------------|
|----------------------------------------------------|
|----------------------------------------------------|
|----------------------------------------------------|
|----------------------------------------------------|
|
|  W
|----------------------------------------------------|
|----------------------------------------------------|
|----------------------------------------------------|
|--3-------------------------------------------------|
|--1-------------------------------------------------|
|----------------------------------------------------|


  A5         Bb5        A5               Bb5        A5
   +S   S  S    S  S  S    S  S  S  S  S    S  S  E    S
|-(21)-18-21---21-18-22---21-18-21-21-18---21-22-21---21---|
|----------------------------------------------------------|
|----------------------------------------------------------|
|----------------------------------------------------------|
|----------------------------------------------------------|
|----------------------------------------------------------|
|
|   |---------3---------|        |--------3---------|
|   Q        Q          Q        Q       Q          Q
|----------------------------------------------------------|
|----------------------------------------------------------|
|----------------------------------------------------------|
|---2--------3----------2--------2-------3----------2------|
|---0--------1----------0--------0-------1----------0------|
|----------------------------------------------------------|


  F#5
                 |-----5-----|  |-----5-----|
   +S   S  S  S  S  S  S  S  S  S  S  S  S  S  S  S  S  S
|-(21)-21-------------------------------------------------|
|---------22-22-21-19-21-21-21-19-------------------------|
|---------------------------------21-19-19-19-18-19-18-21-|
|---------------------------------------------------------|
|---------------------------------------------------------|
|---------------------------------------------------------|
|
|   W
|---------------------------------------------------------|
|---------------------------------------------------------|
|---------------------------------------------------------|
|---------------------------------------------------------|
|---4-----------------------------------------------------|
|---2-----------------------------------------------------|


                               A5
   |--3---|
   S   S  S  E  S  S  S  S  E   Q    E
|-----------------------------------16-|
|--------------------------------------|
|-21--18-------------------------------|
|--------21-21-19-19-18-18-18--18-----|
|--------------------------------------|
|--------------------------------------|
|
| +H                       +E   Q.
|--------------------------------------|
|--------------------------------------|
|--------------------------------------|
|-------------------------------2------|
|-(4)----------------------(4)--0------|
|-(2)----------------------(2)---------|


  Bb5
   H         +E   S  S  S  S  S  S
|-16b18=====(16)-16-16-16-16-16-16-|
|----------------------------------|
|----------------------------------|
|----------------------------------|
|----------------------------------|
|----------------------------------|
|
|  W
|----------------------------------|
|----------------------------------|
|----------------------------------|
|--3-------------------------------|
|--1-------------------------------|
|----------------------------------|


                           A5       Bb5        A5
   S   S  S  S  S  S  S  S  S  S  S    S  S  S    S  S
|-16--16-16-16-16-16-16-16-16-16-16---16-16-16---16r16-|
|------------------------------------------------------|
|------------------------------------------------------|
|------------------------------------------------------|
|------------------------------------------------------|
|------------------------------------------------------|
|
|                           |--------3---------|
| +H                        Q       Q          Q
|------------------------------------------------------|
|------------------------------------------------------|
|------------------------------------------------------|
|-(3)-----------------------2-------3----------2-------|
|-(1)-----------------------0-------1----------0-------|
|------------------------------------------------------|


  F#5
                           |------6-------|
   S  S  S  S  S  S  S  S  E  E  E  E  E  E
|-16-16-15-12-15-15-16-16-15-12-15-15-16-16-|
|-------------------------------------------|
|-------------------------------------------|
|-------------------------------------------|
|-------------------------------------------|
|-------------------------------------------|
|
|  W
|-------------------------------------------|
|-------------------------------------------|
|-------------------------------------------|
|-------------------------------------------|
|--4----------------------------------------|
|--2----------------------------------------|


                                  A5
   S   S  S  S  S  S  S  S  S   S  S   S  S  S  S  S
|-15--15-12-12-15-15-16-16-16--15-12--12-------------|
|----------------------------------------15-15-14-12-|
|----------------------------------------------------|
|----------------------------------------------------|
|----------------------------------------------------|
|----------------------------------------------------|
|
| +H                       +E      Q.
|----------------------------------------------------|
|----------------------------------------------------|
|----------------------------------------------------|
|----------------------------------2-----------------|
|-(4)----------------------(4)-----0-----------------|
|-(2)----------------------(2)-----------------------|


  Bb5                                         A5       Bb5        A5         Bb5A5
                           |--3--|  |--3--|                                |--3--|
   S  S  S  S  S  S  S  S  E  E  E  E  E  E    S  S  S    S  S  S    S  S  Q  Q  Q
|-------------------------------------------|--------------------------------------|
|-15-14-12-12-------------------------------|--------------------------------------|
|-------------14-14-12-11-12-11-11----------|--------------------------------------|
|----------------------------------14-12-11-|-11-12-11---12-11-12---11-------------|
|-------------------------------------------|--------------------------14-12-12-12-|
|-------------------------------------------|--------------------------------------|
|
|                                              |--------3---------|        |--3--|
|  W                                           Q       Q          Q        Q  Q  Q
|-------------------------------------------|--------------------------------------|
|-------------------------------------------|--------------------------------------|
|-------------------------------------------|--------------------------------------|
|--3----------------------------------------|--2-------3----------2--------2--3--2-|
|--1----------------------------------------|--0-------1----------0--------0--1--0-|
|-------------------------------------------|--------------------------------------|


  F#5
   E  S  S  S  S  S  S  S  S  S  S  S  S  S  S
|----------------------------------------------|
|----------------------------------------------|
|----------------------------------------------|
|----------------------------------11-12-14-14-|
|-12-10-10-10-10-12-12-11-11-12-14-------------|
|----------------------------------------------|
|
|  W
|----------------------------------------------|
|----------------------------------------------|
|----------------------------------------------|
|----------------------------------------------|
|--4-------------------------------------------|
|--2-------------------------------------------|


  F#5                                G5
   |-----5------|
   S   S  S  S  S  S  S  S  S  S   S  S  S  S   S E
|---------------------------------------------------|
|--------------------11-----------13p11-11----------|
|-11--11-12-14-12-12----14-14-14-----------14--14---|
|---------------------------------------------------|
|---------------------------------------------------|
|---------------------------------------------------|
|
| +H                          +E      E     Q
|---------------------------------------------------|
|---------------------------------------------------|
|---------------------------------------------------|
|---------------------------------------------------|
|-(4)-------------------------(4)-----5-----5------|
|-(2)-------------------------(2)-----3-----3------|


  E5                              N.C.
                   1_________|
                         ~~~~~~~~
   E      +Q       a    +E   +H
|-------------------------------------------||
|-17-----(17)----(17)--(17)-(17)------------||
|-16b18==(16)r------------------------------||
|-------------------------------------------||
|-------------------------------------------||
|-------------------------------------------||
|
|                                 TPTPTPTP
|  E       E   H                  S S S S
|-------------------------------------------||
|-------------------------------------------||
|-------------------------------------------||
|-------------------------------------------||
|--2------------------------------xsxsxsx--||
|--0------------------------------xsxsxsx--||


   Bridge II
    N.C.(B)         C5 E5 Eb5
    Gtrs I, II
    PM------------|
    S S S S S S S S  E Q  E
||--------------------------|
||o-------------------------|
||--------------------------|
||---------------------9--8-|
||o-----------------10-7--6-|
||--7-7-7-7-7-7-7-7--8------|


  (B)                       (B)             C5 E5 Eb5
  PM------------|           PM------------|
  S S S S S S S S  E Q  E   S S S S S S S S  E Q  E
|-------------------------|-------------------------|
|-------------------------|-------------------------|
|-------------------------|-------------------------|
|--------------------9--8-|--------------------9--8-|
|-----------------10-7--6-|-----------------10-7--6-|
|-7-7-7-7-7-7-7-7--8------|-7-7-7-7-7-7-7-7--8------|


  (B)             C5 C#5D5
  PM------------|
                   |--3--|
  S S S S S S S S  Q  Q  Q
|---------------------------||-|
|--------------------------o||-|
|---------------------------||-|
|---------------------------||-|
|-----------------10-11-12-o||-|
|-7-7-7-7-7-7-7-7--8--9-10--||-|


   4th Verse
    (B)             C5 E5 Eb5 (B)             C5 E5 Eb5
    PM------------|           PM------------|
    S S S S S S S S  E Q  E   S S S S S S S S  E Q  E
||--------------------------|--------------------------|
||o-------------------------|--------------------------|
||--------------------------|--------------------------|
||---------------------9--8-|--------------------9--8--|
||o-----------------10-7--6-|-----------------10-7--6--|
||--7-7-7-7-7-7-7-7--8------|-7-7-7-7-7-7-7-7--8-------|


  (B)             C5 E5 Eb5
  PM------------|
  S S S S S S S S  E Q  E
|-------------------------|
|-------------------------|
|-------------------------|
|--------------------9--8-|
|-----------------10-7--6-|
|-7-7-7-7-7-7-7-7--8------|


                                 D.S.S. al Dbl. Coda
                  C5 C#5D5     B5C5 C#5BbB5C5   A5BbB5
                                               2/4
  PM------------|
                   |--3--|     |--3--| |-3--|   |-3-|
  S S S S S S S S  Q  Q  Q  4x Q  Q  Q Q Q  Q   Q Q Q
|---------------------------||----------------|-------||
|--------------------------o||----------------|-------||
|---------------------------||----------------|-------||
|---------------------------||----------------|-------||
|-----------------10-11-12-o||-9-10-11-8-9-10-|-7-8-9-||
|-7-7-7-7-7-7-7-7--8--9-10--||-7--8--9-6-7--8-|-5-6-7-||


 Breakdown II
  &&
  N.C.(F#)
 4/4
  PM--------|   PM----|   PM|     PM----|   PM----|   PM|
  S S S S S S E S S S S E S S   E S S S S E S S S S E S S
|-----------------------------|---------------------------|
|-----------------------------|---------------------------|
|-----------------------------|---------------------------|
|-----------------------------|-3---------2---------------|
|-------------3---------4-----|---------------------3-----|
|-2-2-2-2-2-2---2-2-2-2---2-2-|---2-2-2-2---2-2-2-2---2-2-|


    N.C.(F#)
      PM--------|   PM--------|     PM----|   PM----|   PM|
    E S S S S S S E S S S S S S   E S S S S E S S S S E S S  3x
||------------------------------|----------------------------||
||o-----------------------------|---------------------------o||
||------------------------------|----------------------------||
||------------------------------|-3---------2----------------||
||o-5-------------4-------------|---------------------3-----o||
||----2-2-2-2-2-2---2-2-2-2-2-2-|---2-2-2-2---2-2-2-2---2-2--||


   Outro
    N.C.(Ab)                    (G)
    PM|     PM--|       PM|     PM--|
    E E E E S S E E E   E E E E S S E E E
||--------------------|-------------------|
||o-------------------|-------------------|
||--------------------|---------------3-2-|
||--------------------|---------------3-2-|
||o-----3-2-------2-1-|-----3-2-----------|
||--4-4-----4-4-4-----|-4-4-----3-3-3-----|


                     1.
  (Ab)                        (G)
  PM|     PM--|       PM|     PM--|
  E E E E S S E E E   E E E E S S E E E
|-------------------|--------------------||
|-------------------|-------------------o||
|-------------------|---------------1-2--||
|-------------------|---------------1-2--||
|-----3-2-------2-1-|-----3-2-----------o||
|-4-4-----4-4-4-----|-4-4-----3-3-3------||


  2.
  (Ab)      (G)
 2/4       4/4
  PM|       PM--------------------------------------------------------------|
  E E E E   S S S S S S S S S S S S S S S S   S S S S S S S S S S S S S S S S
|---------|---------------------------------|---------------------------------||
|---------|---------------------------------|---------------------------------||
|---------|---------------------------------|---------------------------------||
|---------|---------------------------------|---------------------------------||
|-----3-2-|---------------------------------|---------------------------------||
|-4-4-----|-3-3-3-3-3-3-3-3-3-3-3-3-3-3-3-3-|-3-3-3-3-3-3-3-3-3-3-3-3-3-3-3-3-||


  E5
  W          W          W          W
|----------:----------:----------:------*|
|----------:----------:----------:------*|
|----------:----------:----------:------*|
|-2--------:----------:----------:------*|
|-2--------:----------:----------:------*|
|-0--------:----------:----------:------*|


Duration Legend
---------------
W - whole; H - half; Q - quarter; E - 8th; S - 16th; T - 32nd; X - 64th; a - acciaccatura
+ - note tied to previous; . - note dotted; .. - note double dotted
Uncapitalized letters represent notes that are staccato (1/2 duration)
Irregular groupings are notated above the duration line
Duration letters will always appear directly above the note/fret number it represents the
duration for.  Duration letters with no fret number below them represent rests.  Multi-
bar rests are notated in the form Wxn, where n is the number of bars to rest for.  Low
melody durations appear below the staff

Tablature Legend
----------------
 h   - hammer-on
 p   - pull-off
 b   - bend
 pb  - pre-bend
 r   - bend release (if no number after the r, then release immediately)
 /  - slide into or out of (from/to "nowhere")
 s   - legato slide
 S   - shift slide
  - natural harmonic
[n]  - artificial harmonic
n(n) - tapped harmonic
 ~   - vibrato
 tr  - trill
 T   - tap
 TP  - trem. picking
 PM  - palm muting
n/  - tremolo bar dip; n = amount to dip
 n  - tremolo bar down
 n/  - tremolo bar up
/n  - tremolo bar inverted dip
 =   - hold bend; also acts as connecting device for hammers/pulls
 <>  - volume swell (louder/softer)
 x   - on rhythm slash represents muted slash
 o   - on rhythm slash represents single note slash

Misc Legend
-----------
 |  - bar
||  - double bar
||o - repeat start
o|| - repeat end
*|  - double bar (ending)
 :  - bar (freetime)
 $  - Segno
 &  - Coda
Tempo markers -  = BPM(8/16=s8/s16), where s8 = swing 8ths, s16 = swing 16ths

            
            
Suggest correction
Creating personal tab
Creating personal tab
You can edit any tab online and save it as your Personal.

You can edit, replace or remove any tab part or add personal notes – all changes will be seen only by you.

Personal tabs can be accessed anytime from any device, even offline.
Learn more »
comments
print report bad tab
2 comments total.
0 reply
joelspr 82 May 07, 2010 09:50 PM

This is perfect!!! Good job.

0 reply
lord_abyssium 482 Sep 05, 2013 09:04 AM

perfect 5*

guest
You may want to rate the tab now too:
select rating
Wanna post a correction for this tab? Suggest correction