Oops, an error
Loading. Please wait.

Criminally Insane tab

version 2
version 2

Whole song

Interactive

by Slayer
7,455 views 9 this week
2 commentsread comments
1 2 3 4 5
2 more votes to show rating
add to favorites
×
Save as Personal and add changes to this tab that will be seen only by you. Learn more ›
×
You can save this tab as Personal to edit and correct it or add notes. All changes will be seen only by you. Learn more »
launch autoscroll
font size
0
reset
how to read this tab
guitar tuner
backing track
0:00
0:00
edit
Autoscroll
slow
fast
+/-
esc
set tempo
stop
----------------------------------------------------------------------------
               Criminally Insane - Slayer
----------------------------------------------------------------------------
Tabbed by: Brack

Tuning Eb


 RIFF 1 INTRO x2

|---------------------------------|
|---------------------------------|
|---------------------------------|
|---------------------------------|
|-2-------5p2-----2-------5p2-----|
|-2-2-2-2-----2-2-2-2-2-2-----2-2-|
    . . .     . .   . . .     . .



 RIFF 1A INTRO x1

|---------------------------------|
|---------------------------------|
|---------------------------------|
|---------------------------------|
|-3-------6p3-----3-------6p3-----|
|-3-3-3-3-----3-3-3-3-3-3-----3-3-|
    . . .     . .   . . .     . .



 RIFF 1 INTRO x1

 RIFF 1A INTRO x1

 RIFF 1 INTRO x2


 RIFF 2 VERSE SLOW x1

|x3                               |x1
|---------------------------------|-------------------------------|
|---------------------------------|-------------------------------|
|---------------------------------|-------------------------------|
|---------------------------------|-------------------------------|
|-2-------3-------3/5-----5/6-----|-2-------3-------3-5-------5-6-|
|-0-0-0-0-1-0-0-0-1/3-0-0-3/4-0-0-|-0-0-0-0-1-0-0-0-1-3-------3-4-|
    . . .   . . .     . .     . .     . . .   . . . . .       . .



 RIFF 2A VERSE FAST x5

|-----------------------------------|
|-----------------------------------|
|-----------------------------------|
|-----------------------------------|
|-2-------3-------3/5-------5/6-----|
|-0-00000-1-00000-1/3-00000-3/4-000-|
    .....   .....     .....     ...



 RIFF 3 BRIDGE x4

|--------------------------|
|--------------------------|
|--------------------------|
|--------------------------|
|--------------------------|
|-111111112222444455550000-|
  ........................



 FILL 1
   BAR
|------------------------|
|------------------------|
|------------------------|
|------------------------|
|-2\\\\----3-5-------5-6-|
|-0\\\\----1-3-------3-4-|
           . .       . .



 RIFF 2A VERSE FAST x4


 FILL 2

|---------------------|
|---------------------|
|---------------------|
|---------------------|
|-2--3--5--5--------5-|
|-0--1--3--3--------3-|
                     x



 SOLO 1 HANNEMAN
  WAH__________________________________________________
|-15b--15fb^^-----15h18p15----15h18p15----15h18p15-18fb^^^--|
|-18b--18fb^^--17----------17----------17-------------------|
|-----------------------------------------------------------|
|-----------------------------------------------------------|
|-----------------------------------------------------------|
|-----------------------------------------------------------|

  WAH___________________________________
|-15-18-16-15-18-16-15-------------------|
|----------------------18-17-15-18-17-15-|
|----------------------------------------|
|----------------------------------------|
|----------------------------------------|
|----------------------------------------|

  WAH______________________________________
|--------------------------------------------|
|--------------------------------------------|
|-18-16-15-18-16-15--------------------------|
|-------------------17-15-14-17-15-14--------|
|-------------------------------------16b\\--|
|--------------------------------------------|

  WAH_______________________________________________________________ A.H.
|---------------------------------------------------------------------------
|---------------------------------------------------------------------------
|-----------------------------------------------------12-13-15-12-13-15b^^--
|-----------------------------------11-12-14-11-12-14-----------------------
|-----------------10-11-13-10-11-13-----------------------------------------
|-9-10-12-9-10-12-----------------------------------------------------------

  WAH____________________________________________________________________
|-------------------12-13-15-13-12-15-13-12--------------------------------|
|----------12-14-15-------------------------15-14-12-15-14-12--------------|
|-12-13-15----------------------------------------------------15-13-12b\\--|
|--------------------------------------------------------------------------|
|--------------------------------------------------------------------------|
|--------------------------------------------------------------------------|

  WAH____________________________________________________________________
|-------------------------------------------------------------------------|
|------------------------------------------------------18-20-21-18-20-21--|
|------------------------------------18-19-21-18-19-21--------------------|
|------------------14-15-17-14-15-17--------------------------------------|
|-13-14-16-13-14-16-------------------------------------------------------|
|-------------------------------------------------------------------------|


|-24b--24fb^^--18h21p18----18h21p18----18h21p18----18h21p18---------|
|-----------------------20----------20----------20----------24fb^^--|
|-------------------------------------------------------------------|
|-------------------------------------------------------------------|
|-------------------------------------------------------------------|
|-------------------------------------------------------------------|


 SOLO 2 KING
  WAH_____________________________________________________
|-19-22-20-19-22-20-19-------------------------------------|
|----------------------22-21-19-22-21-19-------------------|
|----------------------------------------22-20-19-22-20-19-|
|----------------------------------------------------------|
|----------------------------------------------------------|
|----------------------------------------------------------|

  WAH___________________________________________________________
|------------------------------------------------------------------|
|------------------------------------------------------------------|
|------------------------------------------------------------------|
|-21-19-18-21-19-18------------------------------------------------|
|-------------------20-18-17-20-18-17------------------------------|
|-------------------------------------19-17-16-17-16-14-16-14-13b\-|

  WAH__________________________________________________________________
|-----------------------------------------------------------------------|
|-----------------------------------------------------------------------|
|-1111421-2222542-4444754-55555875-77771087-888811108-13-11-10-14-13-11-|
|-----------------------------------------------------------------------|
|-----------------------------------------------------------------------|
|-----------------------------------------------------------------------|

  WAH______________________     BAR        WAH_BAR           N.H. BAR
|----------------------------------------------------------------------|
|----------------------------------------------------------------------|
|16-14-13-17-16-14-19-17-16/22fb///\//\----\\\2\\\\/\\/\\/\\-4\\\\\\---|
|----------------------------------------------------------------------|
|----------------------------------------------------------------------|
|----------------------------------------------------------------------|




 RIFF 2B UNDER SOLO 1 x6

|-----------------------------------|
|-----------------------------------|
|-----------------------------------|
|-----------------------------------|
|-----------------3/5-------5/6-----|
|-1111111-0000000-1/3-00000-3/4-000-|
  ....... .......     .....     ...



 RIFF 3 UNDER SOLO 2 x4


 FILL 3

|------------------|
|------------------|
|------------------|
|------------------|
|-2----------------|
|-0----------------|



 RIFF 4 INTERLUDE

|BOTH GUITARS x4
|---------------------------------|
|---------------------------------|
|---------------------------------|
|---------------------------------|
|-----------------2-1-------2-1---|
|-0-3-2-0-3-2-0-3-----2-0-3-----2-|
  . . . . . . . . . . . . . . . .


|KING x4
|---------------------------------|
|---------------------------------|
|---------------------------------|
|-----------------9-8-------9-8---|
|-710-9-710-9-710-----9-710-----9-|
|---------------------------------|
| . . . . . . . .       . .
|
|HANNEMAN x4
|---------------------------------|
|---------------------------------|
|---------------------------------|
|---------------------------------|
|-----------------2-1-------2-1---|
|-0-3-2-0-3-2-0-3-----2-0-3-----2-|
  . . . . . . . . . . . . . . . .



 RIFF 2 VERSE SLOW x1

|x4                               |x1
|---------------------------------|-------------------------------|
|---------------------------------|-------------------------------|
|---------------------------------|-------------------------------|
|---------------------------------|-------------------------------|
|-2-------3-------3/5-----5/6-----|-2-------3-------3-5-------5-6-|
|-0-0-0-0-1-0-0-0-1/3-0-0-3/4-0-0-|-0-0-0-0-1-0-0-0-1-3-------3-4-|
    . . .   . . .     . .     . .     . . .   . . . . .       . .



 RIFF 2A VERSE FAST x3


 FILL 4 END

|-------------------------------|
|-------------------------------|
|-------------------------------|
|-------------------------------|
|-2-------3-------3-5-------5-6-|
|-0-00000-1-00000-1-3-------3-4-|
    .....   ..... . .       . .


            
            
Suggest correction
Creating personal tab
Creating personal tab
You can edit any tab online and save it as your Personal.

You can edit, replace or remove any tab part or add personal notes – all changes will be seen only by you.

Personal tabs can be accessed anytime from any device, even offline.
Learn more »
Give kudos to tab author, rate the tab!
1 2 3 4 5
comments
print report bad tab
2 comments total.
0 reply
BichShredder 10 Oct 13, 2006 07:01 AM

Does anybody know the solo at the beginning of the remix version?

0 reply
DownInAHole. 1,490 Oct 14, 2006 02:59 PM

I'll try and tab it...cant promise you though.

guest
You may want to rate the tab now too:
select rating
Wanna post a correction for this tab? Suggest correction