Oops, an error
Loading. Please wait.

Cult Tab

version 2
version 2

Whole song

Interactive

27,951 views 9 this week
12 commentsread comments
1 2 3 4 5
x 15
add to favorites
launch autoscroll
font size
0
reset
how to read this tab
guitar tuner
Autoscroll
slow
fast
+/-
esc
set tempo
stop
Help us to improve Ultimate-Guitar.com Take our survey!
×
Author
Tuning
C# G# E B F# C#
Slayer - Cult
Tabbed by: Brack
Tuning Db

[RIFF 1 INTRO] WITH LIGHT DISTORTION x3
  |KING
C#|-------------------------------------------------|
F#|-------------------------------------------------|
B |-------------------------------------------------|
E |-------------------------------------------------|
G#|-----8---7-------7-7-7-------8---7------101010---|
C#|-0---0---0---0---0-0-0---0---0---0---0---0-0-0---|

  |KING
C#|-------------------------------------------------------|
F#|-------------------------------------------------------|
B |-------------------------------------------------------|
E |-------------------------------------------------------|
G#|-----8---7-------7-7-7-------8---7------10---9---8-----|
C#|-0---0---0---0---0-0-0---0---0---0---0---0---0---0-----|

[RIFF 1A INTRO] x1
C#|-------------------------------------------------|
F#|-------------------------------------------------|
B |-------------------------------------------------|
E |-------------------------------------------------|
G#|-----8---7b^-----7-7-7b^-----8---7b^----10-9-8b^-|
C#|-0-----------0-----------0-----------0-----------|

  |KING
C#|-------------------------------------------------------|
F#|-------------------------------------------------------|
B |-------------------------------------------------------|
E |-------------------------------------------------------|
G#|-----8---7b^-----7-7-7b^-----8---7b^----10---9---8b^---|
C#|-0-----------0-----------0-----------0-----------------|
|
  |HANNEMAN
C#|-------------------------------------------------------|
F#|-------------------------------------------------------|
B |----------------------------------------12--11--10b^---|
E |-------------------------------------------------------|
G#|-----8---7b^-----7-7-7b^-----8---7b^-------------------|
C#|-0-----------0-----------0-----------------------------|

C#|-------------------------------------------------|
F#|-------------------------------------------------|
B |-------------------------------------------------|
E |-------------------------------------------------|
G#|-----8---7b^-----7-7-7b^-----8---7b^----10-9-8b^-|
C#|-0-----------0-----------0-----------0-----------|

  |KING
C#|-------------------------------------------------------|
F#|-------------------------------------------------------|
B |-------------------------------------------------------|
E |-------------------------------------------------------|
G#|-----8---7b^-----7-7-7b^-----8---7b^----10---9---8b^---|
C#|-0-----------0-----------0-----------0-----------------|
|
  |HANNEMAN
C#|-------------------------------------------------------|
F#|-------------------------------------------------------|
B |----------------------------------------12--11--10b^---|
E |-------------------------------------------------------|
G#|-----8---7b^-----7-7-7b^-----8---7b^-------------------|
C#|-0-----------0-----------0-----------------------------|

C#|-------------------------------------------------|
F#|-------------------------------------------------|
B |-------------------------------------------------|
E |-------------------------------------------------|
G#|-----8---7b^-----7-7-7b^-----8---7b^----10-9-8b^-|
C#|-0-----------0-----------0-----------0-----------|

C#|-------------------------------------------------------|
F#|-------------------------------------------------------|
B |-------------------------------------------------------|
E |-------------------------------------------------------|
G#|-----8---7b^-----7-7-7b^-----8---7b^-----5---4---3-----|
C#|-0-----------0-----------0-----------0---3---2---1-----|

[RIFF 3] [INTRO] x2
C#|---------------------------------|---------------------------------|
F#|---------------------------------|---------------------------------|
B |---------------------------------|---------------------------------|
E |---------------------------------|---------------------------------|
G#|-2---5---4---2---2---2---2-2-2---|-2---6---5---2---2---4---3-3-3---|
C#|-0---3---2---0---0---0---0-0-0---|-0---4---3---0---0---2---1-1-1---|
                .   .   .   . . .                 .   .

C#|---------------------------------|---------------------------------|
F#|---------------------------------|---------------------------------|
B |---------------------------------|---------------------------------|
E |---------------------------------|---------------------------------|
G#|-2---6---5---2---2---2---2-2-2---|-2---5---4---2---2---4---3-3-3---|
C#|-0---4---3---0---0---0---0-0-0---|-0---3---2---0---0---2---1-1-1---|
                .   .   .   . . .                 .   .

[RIFF 4] [BREAK] x1
  |KING
C#|---------------------------------|---------------------------------|
F#|---------------------------------|---------------------------------|
B |---------------------------------|---------------------------------|
E |---------------------------------|---------------------------------|
G#|-------------------------3---6---|-------------------------6---5---|
C#|-1p0-0-2p1-0-1p0-0-1h4p2-1---4---|-1p0-0-2p1-0-1p0-0-1h4p2-4---3---|
  |     .     .     .                     .     .     .

  |HANNEMAN
C#|---------------------------------|---------------------------------|
F#|---------------------------------|---------------------------------|
B |---------------------------------|---------------------------------|
E |---------------------------------|---------------------------------|
G#|---------------------------------|-------------------------6---5---|
C#|---------------------------------|-------------------------4---3---|

  |BOTH
C#|---------------------------------|---------------------------------|
F#|---------------------------------|---------------------------------|
B |---------------------------------|---------------------------------|
E |---------------------------------|---------------------------------|
G#|-------------------------3---6---|---------------------------------|
C#|-1p0-0-2p1-0-1p0-0-1h4p2-1---4---|-1p0-0-2p1-0-1p0-0-1h4p2-1-4-3-2-|
        .     .     .                     .     .     .       . . . .

[RIFF 5] [VERSE] x1
C#|---------------------------------|---------------------------------|
F#|---------------------------------|---------------------------------|
B |---------------------------------|---------------------------------|
E |---------------------------------|---------------------------------|
G#|---------------------------------|-----------------4-----------4---|
C#|-000000000000000-1h4p2-0-1-3b^---|-000000000000000-2---0-3p1-0-2---|
    ...............       . .         ............... .   .     .

C#|---------------------------------|---------------------------------|
F#|---------------------------------|---------------------------------|
B |---------------------------------|---------------------------------|
E |---------------------------------|---------------------------------|
G#|---------------------------------|-----------------4-----------4---|
C#|-000000000000000-1h4p2-0-1-3b^---|-000000000000000-2---1-4p2-0-2---|
    ...............       . .         ............... .   .     .

C#|---------------------------------|---------------------------------|
F#|---------------------------------|---------------------------------|
B |---------------------------------|---------------------------------|
E |---------------------------------|---------------------------------|
G#|---------------------------------|-----------------4-----------4---|
C#|-000000000000000-1h4p2-0-1-3b^---|-000000000000000-2---0-3p1-0-2---|
    ...............       . .         ............... .   .     .

C#|---------------------------------|---------------------------------|
F#|---------------------------------|---------------------------------|
B |---------------------------------|---------------------------------|
E |---------------------------------|---------------------------------|
G#|---------------------------------|-----------------4-----4-----4---|
C#|-000000000000000-1h4p2-0-1-3b^---|-000000000000000-2---0-2---0-2---|
    ...............       . .         ............... .   .     .

  [RIFF 6] BRIDGE x8
C#|-----------------|
F#|-----------------|
B |-----------------|
E |-----------------|
G#|-3---------------|
C#|-111111144333333-|
    ...............

  [RIFF 7] CHORUS x4
C#|---------------------------------|
F#|---------------------------------|
B |---------------------------------|
E |---------------------------------|
G#|-2-------------------------------|
C#|-0000000334444441133333311444444-|
    ...............................

  [SOLO 1] HANNEMAN
C#|-22b^^^^^^^-----19-21-19-21-19-22-21-19-21-22-21-19----------------------|
F#|----------------------------------------------------21-20-18-20-21-20-18-|
B |-------------------------------------------------------------------------|
E |-------------------------------------------------------------------------|
G#|-------------------------------------------------------------------------|
C#|-------------------------------------------------------------------------|

C#|------------------------------------------------------------15-16-15-16-18-|
F#|---------------------------------------------------------------------------|
B |-21-19-18-19-21-19-18----------------18-19-18-19-21b^^^^^------------------|
E |----------------------20-18-17-18-20---------------------------------------|
G#|---------------------------------------------------------------------------|
C#|---------------------------------------------------------------------------|

C#|-16-15---------------------------------------------------------------------|
F#|-------18-17-15-17-18-17-15------------------------------------------------|
B |----------------------------18-16-15-16-18-16-15---------------------------|
E |-------------------------------------------------17-15-14-15-17-15-14------|
G#|----------------------------------------------------------------------1614-|
C#|---------------------------------------------------------------------------|

C#|-------------------------------------------------------------------------|
F#|----------------------------------------------15-17-18-17b^^^---17b^^^---|
B |----------------------------15-16-18-15-16-18----------16b^^^---16b^^^---|
E |----------14-15-17-14-15-17----------------------------------------------|
G#|-13-14-16----------------------------------------------------------------|
C#|-------------------------------------------------------------------------|

C#|------------------------|
F#|-17b^^^---15b^^^\\\-----|
B |-16b^^^---14b^^^\\\-----|
E |------------------------|
G#|------------------------|
C#|------------------------|

  [RIFF 5A] x1 UNDER SOLO 1
C#|---------------------------------|---------------------------------|
F#|---------------------------------|---------------------------------|
B |---------------------------------|---------------------------------|
E |---------------------------------|---------------------------------|
G#|---------------------------------|-----------------4-----------4---|
C#|-000000000000000-1h4p2-0-1-3b^---|-000000000000000-2---0-3p1-0-2---|
    ...............       . .         ............... .   .     .

C#|---------------------------------|---------------------------------|
F#|---------------------------------|---------------------------------|
B |---------------------------------|---------------------------------|
E |---------------------------------|---------------------------------|
G#|---------------------------------|-----------------4-----4-----4---|
C#|-000000000000000-1h4p2-0-1-3b^---|-000000000000000-2---0-2---0-2---|
    ...............       . .         ............... .   .     .

   FILL 1
C#|-----|
F#|-----|
B |-----|
E |-----|
G#|-3---|
C#|-1---|

[RIFF 5 VERSE] x1
[RIFF 6 BRIDGE] x8
[RIFF 7 CHORUS] x4
 
  [RIFF 3A] INTERLUDE x2
C#|---------------------------------|---------------------------------|
F#|---------------------------------|---------------------------------|
B |---------------------------------|---------------------------------|
E |---------------------------------|---------------------------------|
G#|-2---5---4---2---2---2---2-2-2---|-2---6---5---2---2---2---2-2-2---|
C#|-0---3---2---0---0---0---0-0-0---|-0---4---3---0---0---0---0-0-0---|
                .   .   .   . . .                 .   .   .   . . .

C#|---------------------------------|---------------------------------|
F#|---------------------------------|---------------------------------|
B |---------------------------------|---------------------------------|
E |---------------------------------|---------------------------------|
G#|-2---5---4---2---2---2---2-2-2---|-2---6---5---2---2---4---3-3-3---|
C#|-0---3---2---0---0---0---0-0-0---|-0---4---3---0---0---2---1-1-1---|
                .   .   .   . . .                 .   .

[RIFF 4] BREAK x1

  [SOLO 2] KING
    WAH______________________________                   WAH & BAR/\/\/\/\
C#|-----------------------------------------------------------------------|
F#|-----------------------------------------------------------------------|
B |-4h7p4h7p4h7p4h7p4h7p4h7p4h7p4h7p4-10b^^^---10b^^^---1h4p1h4p1h4p1h4p1-|
E |-----------------------------------------------------------------------|
G#|-----------------------------------------------------------------------|
C#|-----------------------------------------------------------------------|

    WAH & BAR/\/\/\/\/\
C#|-//16b^---13-14-16b^---13-14-22fb^^^r---22b^^^---19-20-22-20-19------------|
F#|----------------------------------------------------------------22-21-1921-|
B |---------------------------------------------------------------------------|
E |---------------------------------------------------------------------------|
G#|---------------------------------------------------------------------------|
C#|---------------------------------------------------------------------------|

C#|--------------------------------------------------------------------------|
F#|-22-21-19-----------------------------------------------------------3-4-3-|
B |----------22-20-19-20-22-20-19----------------------5-4b^^^---2-4-5-------|
E |-------------------------------21-19-18-19-21b^\\-------------------------|
G#|--------------------------------------------------------------------------|
C#|--------------------------------------------------------------------------|

                WAH & BAR
C#|--------------------------------------------------------------------19b^^^-|
F#|-4h5p4b^^^--------------------------------------------12//22-x\\\---22b^^^-|
B |-------------0//\\\\\\\\\\---7b^^^---7b^^^---//////22--------x\\\----------|
E |---------------------------------------------------------------------------|
G#|---------------------------------------------------------------------------|
C#|---------------------------------------------------------------------------|

C#|-19b^^^---19b^-19b^^^---19b^^^---19b^^^---22b^^^^^---22b222222222222222222-|
F#|-22b^^^---22b^-22b^^^---22b^^^---22b^^^------------------------------------|
B |---------------------------------------------------------------------------|
E |---------------------------------------------------------------------------|
G#|---------------------------------------------------------------------------|
C#|---------------------------------------------------------------------------|

    WAH & BAR         BAR/\/\/\/\/\/\/\/\/\/\/\/\/\/\/\/\/\/\/\/\/\/\/\/
C#|---------------------------------------------------------------------------|
F#|-------------------2h3/3h4/4h5/5h6/6h7/7h8/8h9/9h10/10h11/11h12////24\\\---|
B |-0//\\\\\\\\\\\\-----------------------------------------------------------|
E |---------------------------------------------------------------------------|
G#|---------------------------------------------------------------------------|
C#|---------------------------------------------------------------------------|

  [RIFF 8] x [UNDER SOLO] 2
C#|------------------------|------------------------|
F#|------------------------|------------------------|
B |------------------------|------------------------|
E |------------------------|------------------------|
G#|------------------------|------------------------|
C#|-1111111114441344411444-|-3333333334442233311222-|
    ......................   ......................

[RIFF 5A] [VERSE] x1
[RIFF 6] [BRIDGE] x8
[RIFF 7] [CHORUS] x4

  [RIFF 5B] [OUTRO] x1
C#|---------------------------------|---------------------------------|
F#|---------------------------------|---------------------------------|
B |---------------------------------|---------------------------------|
E |---------------------------------|---------------------------------|
G#|---------------------------------|-----------------4-----------4-5-|
C#|-0-0-0-0-0-0-0-0-1h4p2-0-1-3b^---|-0-0-0-0-0-0-0-0-2---0-3p1-0-2-3-|
    . . . . . . . .       . .         . . . . . . . .     .     .

C#|---------------------------------|---------------------------------|
F#|---------------------------------|---------------------------------|
B |---------------------------------|---------------------------------|
E |---------------------------------|---------------------------------|
G#|---------------------------------|-----------------4-----4-----4-4-|
C#|-0-0-0-0-0-0-0-0-1h4p2-0-1-3b^---|-0-0-0-0-0-0-0-0-2---0-2---0-2-2-|
    . . . . . . . .       . .         . . . . . . . .     .     .

C#|---------------------|
F#|---------------------|
B |---------------------|
E |---------------------|
G#|---4-----4-----4-5---|
C#|-0-2---0-2---0-2-3---|
    .     .     .

  [SOLO 3] HANNEMAN
C#|-15-16-18-15-16-18-15-16-18-16-15------------------------------------------|
F#|----------------------------------18-17-15-17-18-17-15-18-17-15------------|
B |----------------------------------------------------------------18-16-1516-|
E |---------------------------------------------------------------------------|
G#|---------------------------------------------------------------------------|
C#|---------------------------------------------------------------------------|

C#|---------------------------------------------------------------------------|
F#|---------------------------------------------------------------------------|
B |-18-16-15-18-16-15---------------------------------------------------------|
E |-------------------17-15-14-15-17-15-14-17-15-14---------------------------|
G#|-------------------------------------------------16-14-13-16-14-13-14-1613-|
C#|---------------------------------------------------------------------------|

C#|-------------------------------------------------------------15-16-18-1516-|
F#|-------------------------------------------15-17-18-15-17-18---------------|
B |-------------------------15-16-18-15-16-18---------------------------------|
E |-------14-15-17-14-15-17---------------------------------------------------|
G#|-14-16---------------------------------------------------------------------|
C#|---------------------------------------------------------------------------|

C#|-18-16-15----------------------------------------------------18-19-21-1819-|
F#|----------18-17-15-17-18-15-17-18-17-18-20-17-18-20-18-20-21---------------|
B |---------------------------------------------------------------------------|
E |---------------------------------------------------------------------------|
G#|---------------------------------------------------------------------------|
C#|---------------------------------------------------------------------------|

C#|-21-19-18----------------18-19-21-18-19-21-19-18---------------------------|
F#|----------21-20-18-20-21-------------------------21-20-18-20b^^^---20b^^^--|
B |----------------------------------------------------------19b^^^---19b^^^--|
E |---------------------------------------------------------------------------|
G#|---------------------------------------------------------------------------|
C#|---------------------------------------------------------------------------|

C#|---------------|
F#|-20b^^^\\\-----|
B |-19b^^^\\\-----|
E |---------------|
G#|---------------|
C#|---------------|

  [RIFF 9] x1 [UNDER SOLO 3]
C#|---------------------------------|---------------------------------|
F#|---------------------------------|---------------------------------|
B |---------------------------------|---------------------------------|
E |---------------------------------|---------------------------------|
G#|-----------------4-----4-----4-4-|-----------------4-----4-----4-4-|
C#|-000000000000000-2---0-2---0-2-2-|-000000000000000-2---0-2---0-2-2-|
   ...............       .   .       ............... .   .     .

C#|---------------------------------|---------------------------------|
F#|---------------------------------|---------------------------------|
B |---------------------------------|---------------------------------|
E |---------------------------------|---------------------------------|
G#|-----------------4-----4-----4-4-|-----------------4-----4-----4---|
C#|-000000000000000-2---0-2---0-2-2-|-000000000000000-2---0-2---0-2---|
   ...............       .   .       ............... .   .     .  x


************************************

| .  Palm mute
| h  Hammer-on
| p  Pull-off
| /  Slide up
| b  Bend
| \  Slide down

************************************
Suggest correction
comments
print report bad tab
12 comments total. Showing first comments. show 1 bad comment
+1 reply
Peace Sells 71 Oct 22, 2006 06:58 AM

This Tab is savage. Slayer rule

0 reply
WoW guitarist 10 Dec 22, 2006 10:42 AM

nice tab dude sound if not dead on, really really close

guest
You may want to rate the tab now too:
select rating
Wanna post a correction for this tab? Suggest correction