Oops, an error
Loading. Please wait.

Disciple bass

version 1
version 1

Whole song

by Slayer
6,992 views 12 this week
1 commentread comment
1 2 3 4 5
x 4
add to favorites
×
Save as Personal and add changes to this tab that will be seen only by you. Learn more ›
×
You can save this tab as Personal to edit and correct it or add notes. All changes will be seen only by you. Learn more »
launch autoscroll
font size
0
reset
guitar tuner
backing track
0:00
0:00
edit
Autoscroll
slow
fast
+/-
esc
set tempo
stop
Author
Difficulty
Disciple

G|--------------------------------------------------------------------|
D|--------------------------------------------------------------------|
A|--------------------------------------------------------------------|
E|---3--0----3--6---3--0----------------------------------------------|

G|--------------------------------------------------------|
D|--------------9--8-----------------9--8-----------------|
A|--------------------7--------------------7--------------|  x4
E|---000---000------------000---000-----------------------|

G|----------------------|
D|----------------------|
A|----7--6--5-----------|
E|----------------------|

G|--------------------------------------------------------|
D|--------------------------------------------------------|
A|--------------------------------------------------------|  x6
E|----3-2-0----3-4-3-2-0-------3-2-0----3-4-3-2-0---------|

G|--------------------------------------------------------|
D|--------------------------------------------------------|
A|--------------------------------------------------------|
E|-----000---------000----------000---------000-----------|

G|--------------------------------------------------------|
D|--------------------------------------------------------|
A|--------------------------------------------------------|  x2
E|----1--4--0-0-0-0-0-0--------1--4--0-0-0-0-0-0----------|

G|--------------------------------------------------------|
D|--------------------------------------------------------|
A|--------------------------------------------------------|  x6
E|----3-2-0----3-4-3-2-0-------3-2-0----3-4-3-2-0---------|

G|--------------------------------------------------------|
D|--------------------------------------------------------|
A|--------------------------------------------------------|  x2
E|-----000---------000----------000---------000-----------|

G|--------------------------------------------------------|
D|--------------------------------------------------------|
A|--------------------------------------------------------|  x4
E|----1--4--0-0-0-0-0-0--------1--4--0-0-0-0-0-0----------|

G|--------------------------------------------------------|
D|--------------------------------------------------------|
A|--------------------------------------------------------|
E|--1~~~~-------3-----3------------3---3---3---6----------|

G|--------------------------------------------------------------------|
D|--------------------------------------------------------------------|
A|-------------------------------x3-----------------------------------|
E|0-0-0-0-0-0-0-0-0-0-12-12-12-12---5-5-5-5-4-4-4-4-0-0-0-0-1-1-1-1---|



G|--------------------------------------------------------|
D|--------------------------------------------------------|
A|--------------------------------------------------------|
E|--0~----3~----2~-------0----2----3~-------6~----5~------|

G|--------------------------------------------------------------------|
D|--------------------------------------------------------------------|
A|------------------------------------------------------------------x3|
E|-3p0-000--3p0-000--3p2-222222222--3p0-000--3p0-000--3h6-666666666---|

G|--------------------------------------------------------|
D|--------------------------------------------------------|
A|--------------------------------------------------------|  x4
E|----1--4--0-0-0-0-0-0--------1--4--0-0-0-0-0-0----------|

G|--------------------------------------------------------|
D|--------------------------------------------------------|
A|--------------------------------------------------------| x2
E|--0~----3~----2~-------0----2----3~-------6~----5~------|
									
G|------------------------------------------------------------------
D|------------------------------------------------------------------ 
A|------------------------------------------------------------------ 
E|-3-3-3-6-6-6-2-2-2-2-2-2-2-2-2-2--3-3-3-6-6-6-5-5-5-2-2-2-2-2-2-2- 
								       
------------------------------------------------------------------|
------------------------------------------------------------------|
------------------------------------------------------------------| x3
-3-3-3-6-6-6-5-5-5-6-6-6-2-2-2-2--3-3-3-6-6-6-2-2-2-2-2-2-2-2-2-2-|

***on the last time through there is only nine 2’s in the very last sequence***

            
            
Suggest correction
Creating personal tab
Creating personal tab
You can edit any tab online and save it as your Personal.

You can edit, replace or remove any tab part or add personal notes – all changes will be seen only by you.

Personal tabs can be accessed anytime from any device, even offline.
Learn more »
comments
print report bad tab
1 comment total.
0 reply
TrojanWarhorse 31 Jul 22, 2009 01:22 AM

might i suggest that this is the correct interpretation of the intro.

G|--------------------------------------------------------------------|
D|--------------------------------------------------------------------|
A|--------------------------------------------------------------------|
E|---3--0----3--6---5--0----------------------------------------------|

I think you'll find it better fits the sound, and corresponds with the most accurate guitar tabs.
Great tab mate.

guest
You may want to rate the tab now too:
select rating
Wanna post a correction for this tab? Suggest correction