Oops, an error
Loading. Please wait.

Disciple tab

version 1
version 1
by Slayer
48,372 views 39 this week
3 commentsread comments
1 2 3 4 5
x 7
add to favorites
×
Save as Personal and add changes to this tab that will be seen only by you. Learn more ›
×
You can save this tab as Personal to edit and correct it or add notes. All changes will be seen only by you. Learn more »
launch autoscroll
font size
0
reset
how to read this tab
guitar tuner
backing track
0:00
0:00
edit
Autoscroll
slow
fast
+/-
esc
set tempo
stop
"Disciple"
Written by Jeff Hanneman
Lyrics by Kerry King

[Intro]
    G E  G A# A E
C#|---------------|
F#|---------------|
B |---------------|
E |---------------|
G#|-5-2--5-8--7-2-|
C#|-3-0--3-6--5-0-|

[MAINRIFF]
    E               B F E
    P.M._________                  ___   ___   ___
C#|-------------------------    ---------------------|
F#|-------------------------    ---------------------|
B |-------------------------    ---------------------|
E |-----------------9------- x8 -9-----8-----7-------|
G#|-2-2-2---2-2-2-----8-7---    ---8-7---7-6---6-5---|
C#|-0-0-0---0-0-0-----------    ---------------------|

[VERSERIFF] ("Drones since the dawn of time......")
    P.M.___________________________|
C#|---------------------------------|
F#|---------------------------------|
B |---------------------------------|
E |---------------------------------|
G#|---------------------------------|
C#|-3-1-0-1-4-3-0-1-3-1-0-1-4-3-0-1-|

[CHORUS] ("God hates us all!! God Hates us all!!......")
   gtr I (Kerry)
    P.M._____________________________________
C#|----------------------------------------------|
F#|----------------------------------------------|
B |----------------------------------------------|
E |-2-2-2---2-2-2---------------2-2-2---2-2-2----|
G#|-2-2-2---2-2-2---------------2-2-2---2-2-2----|
C#|-0-0-0---0-0-0---------------0-0-0---0-0-0----|

   gtr II (Jeff)
C#|-0--0--0--0--|
F#|-------------|
B |-9~-9~-9~-9~-|
E |-------------|
G#|-------------|
C#|-------------|

[VERSE II] ("You know it's true God hates this place......")
           P.M._____
C#|------------------|
F#|------------------|
B |------------------|
E |------------------|
G#|-33336--2-2-2-2-2-|
C#|-11114--0-0-0-0-0-|

[VERSERIFF I]
    P.M.___________________________|
C#|---------------------------------|
F#|---------------------------------|
B |---------------------------------|
E |---------------------------------|
G#|---------------------------------|
C#|-3-1-0-1-4-3-0-1-3-1-0-1-4-3-0-1-|

[CHORUS] ("God hates us all!! God Hates us all!!")

gtr I (Kerry)
    P.M._____________________________________
C#|-----------------------------     ----------------------------|
F#|-----------------------------     ----------------------------|
B |-----------------------------     ----------------------------|
E |-2-2-2---2-2-2---------------     -2-2-2---2-2-2--------------|
G#|-2-2-2---2-2-2---------------     -2-2-2---2-2-2--------------|
C#|-0-0-0---0-0-0---------------     -0-0-0---0-0-0--------------|

gtr II (Jeff)                  x2                              x2
    P.M.______________________   |                               |
C#|-----------------------------     ----0-----0-----0-----0-----|
F#|-----------------------------     ----------------------------|
B |-----------------------------     -9~----9~----9~----9~----9~-|
E |-2-2-2---2-2-2---------------     ----------------------------|
G#|-2-2-2---2-2-2---2--2--2--2--     ----------------------------|
C#|-0-0-0---0-0-0---0--0--0--0--     ----------------------------|

[MAINRIFF]
    E               B F E
    P.M._________
C#|-------------------------|
F#|-------------------------|
B |-------------------------|
E |-----------------9-------| x8
G#|-2-2-2---2-2-2-----8-7---|
C#|-0-0-0---0-0-0-----------|

[SOLORIFF]
    F   G# E               F
C#|-------------------    --------|
F#|-------------------    --------|
B |------------------- X8 --------|
E |-------------------    --------|
G#|-33336662222222222-    -3------|
C#|-11114440000000000-    -1------|

[RIFF (after first solo)
gtr I (Kerry)
  G E     G E     G F#    G E     G E     G A#    G E     G E     G F#    G E     G E     G E     A#
C#|---------------------------------------------------------------------------------------------------|
F#|---------------------------------------------------------------------------------------------------|
B |---------------------------------------------------------------------------------------------------|
E |---------------------------------------------------------------------------------------------------|
G#|-55------55------5544444455------55------5588888855------55------5544444455------55------55------8-|
C#|-3300000033000000332222223300000033000000336666663300000033000000332222223300000033000000330000006-|

   gtr II (Jeff)                              hits: x       x               x       x       x       x
C#|---------------------------------------------------------------------------------------------------|
F#|---------------------------------------------------------------------------------------------------|
B |---------------------------------------------------------------------------------------------------|
E |---------------------------------------------------------------------------------------------------|
G#|-------------------------------------------------5-------5---------------5-------5-------5-------8-|
C#|-------------------------------------------------3-------3---------------3-------3-------3-------6-|

[RIFF]  ("Pessimist, Terrorist targeting the next mark.....")
    E                            A#  A   E   F
C#|-------------------------    ------------------ |2|
F#|-------------------------    ------------------ |T|
B |-------------------------    ------------------ |I|
E |------------------------- x3 ------------------ |M|
G#|-----------------77777777    -8888777722223333- |E|
C#|-0000000000000000--------    -6666555500001111- |S|

[RIFF]
   E   G   F#  E F#G   B   A#
C#|----------------------------------|
F#|----------------------------------|
B |----------------------------------|
E |----------------------------------| x2
G#|-22225555444422445555999988888888-|
C#|-00003333222200223333777766666666-|

[RIFF] ("Man made virus infecting the world......")
    G E     G E     G F#    G E     G E     G A#
C#|---------------------------------------------------|
F#|---------------------------------------------------|
B |---------------------------------------------------|
E |---------------------------------------------------| x3
G#|-55------55------5544444455------55------55888888--|
C#|-330000003300000033222222330000003300000033666666--|

[RIFF] ("I hate everyone equally......")
    F   G#  E       F   G#E
C#|---------------------------------------------------------------------|
F#|---------------------------------------------------------------------|
B |---------------------------------------------------------------------|
E |---------------------------------------------------------------------| x8
G#|-3-3-3-3-6-6-6-6-2-2-2-2-2-2-2-2-3-3-3-3-6-6-2-2-2-2-2-2-2-2-2-2-2-2-|
C#|-1-1-1-1-4-4-4-4-0-0-0-0-0-0-0-0-1-1-1-1-4-4-0-0-0-0-0-0-0-0-0-0-0-0-|

[RIFF] ("I never said I wanted to be God's disciple......")
    E   G   F#  E F#G   B   A#            E   G   F#  E F#G   B   A#
C#|----------------------------------    ----------------------------------|
F#|----------------------------------    ----------------------------------|
B |----------------------------------    ----------------------------------|
E |---------------------------------- x2 ----------------------------------|
G#|-22225555444422445555999988888888-    -2---5---4---2-4-5---9---8--------|
C#|-00003333222200223333777766666666-    -0---3---2---0-2-3---7---6--------|

[RIFF (Jeff)]
    G     A#    F#                  G     A#    A     F#
    P.M.___________________________________________________________
C#|-----------------------------------------------------------------|
F#|-----------------------------------------------------------------|
B |-----------------------------------------------------------------|
E |-----------------------------------------------------------------|
G#|-5-5-5-8-8-8-4-4-4-4-4-4-4-4-4-4-5-5-5-8-8-8-7-7-7-4-4-4-4-4-4-4-|
C#|-3-3-3-6-6-6-2-2-2-2-2-2-2-2-2-2-3-3-3-6-6-6-5-5-5-2-2-2-2-2-2-2-|

    G     A#    A     A#    F#      G     A#    F#
    _______________________________________________________________|
C#|-----------------------------------------------------------------|
F#|-----------------------------------------------------------------|
B |-----------------------------------------------------------------|
E |-----------------------------------------------------------------|
G#|-5-5-5-8-8-8-7-7-7-8-8-8-4-4-4-4-5-5-5-8-8-8-4-4-4-4-4-4-4-4-4-4-|
C#|-3-3-3-6-6-6-5-5-5-6-6-6-2-2-2-2-3-3-3-6-6-6-2-2-2-2-2-2-2-2-2-2-|

[RIFF] ("I reject this fuckin' race, I despise this fuckin' place......")
    G     A#    F#                  G     A#    A     F#
C#|-----------------------------------------------------------------|
F#|-----------------------------------------------------------------|
B |-----------------------------------------------------------------|
E |-----------------------------------------------------------------|
G#|-5-5-5-8-8-8-4-4-4-4-4-4-4-4-4-4-5-5-5-8-8-8-7-7-7-4-4-4-4-4-4-4-|
C#|-3-3-3-6-6-6-2-2-2-2-2-2-2-2-2-2-3-3-3-6-6-6-5-5-5-2-2-2-2-2-2-2-|

    G     A#    A     A#    F#      G     A#    F#   _____________________________________
                                                    |1st time           |2nd time
C#|-----------------------------------------------------------------  |2|-P.M.__________---|
F#|-----------------------------------------------------------------  |T|------------------|
B |-----------------------------------------------------------------  |I|------------------|
E |-----------------------------------------------------------------  |M|------------------|
G#|-5-5-5-8-8-8-7-7-7-8-8-8-4-4-4-4-5-5-5-8-8-8-4-4-4-4-4-4-4-4-4-4-  |E|-4-4-4-4-4-4-4-4--|
C#|-3-3-3-6-6-6-5-5-5-6-6-6-2-2-2-2-3-3-3-6-6-6-2-2-2-2-2-2-2-2-2-2-  |S|-2-2-2-2-2-2-2-2--|

************************************

|  ~   Vibrato
| P.M. Palm mute

************************************

            
            
Suggest correction
Creating personal tab
Creating personal tab
You can edit any tab online and save it as your Personal.

You can edit, replace or remove any tab part or add personal notes – all changes will be seen only by you.

Personal tabs can be accessed anytime from any device, even offline.
Learn more »
comments
print report bad tab
3 comments total.
+1 reply
Dimebag Dave 30 Jul 21, 2006 10:20 PM

No solo, sounds a bit inaccurate in beginning.

0 reply
fightsoulweapon 10 Jul 19, 2011 02:00 PM

I think the A power chord in the intro should be G.

0 reply
tasosadam18 10 May 13, 2017 12:45 PM

is there a special tune?

guest
You may want to rate the tab now too:
select rating
Wanna post a correction for this tab? Suggest correction