Oops, an error
Loading. Please wait.

Disciple bass

version 2
version 2

Whole song

by Slayer
6,137 views 3 this week
3 commentsread comments
1 2 3 4 5
x 4
add to favorites
×
Save as Personal and add changes to this tab that will be seen only by you. Learn more ›
×
You can save this tab as Personal to edit and correct it or add notes. All changes will be seen only by you. Learn more »
launch autoscroll
font size
0
reset
guitar tuner
backing track
0:00
0:00
edit
Autoscroll
slow
fast
+/-
esc
set tempo
stop
Author
----------------------------------------------------------------------------
			     DISCIPLE - Slayer
----------------------------------------------------------------------------

Tabbed By: James
e-mail: the.master.ofpuppets@homtail.com

Tuning: 1.5 step i.e (Db, Gb, B, E)   

Intro:
G|-------------------------------------------------------------------------|
D|-------------------------------------------------------------------------|
A|-------------------------------------------------------------------------|
E|---3--0----3--6---3--0---------------------------------------------------|

0:02-0:12
G|-------------------------------------------------------------------------|
D|-------------------------------------------------------------------------|
A|-------------------------------------------------------------------------|
E|-0-0-0-0-0-0-0-0-0-0-0-0-0-0-0-0-0-0-0-0-0-0-0-0-0-0-0-0-0-0-0-0-0-0-0-0-|

or this one (im not 100%, i think one might be live and the other recorded)

G|-------------------------------------------------------------------------|
D|----------9-8-----------------9-8-----------------9-8-------------9-8----|
A|----7---------7--------7----------7---------7---------7-------7-------7--|
E|--0------------------0--------------------0-----------------0------------|

0:12-0:14
G|-------------------------------------------------------------------------|
D|-------------------------------------------------------------------------|
A|----7------6------5-----------------------------------------------------|
E|-------------------------------------------------------------------------|

0:14-0:29 (verse)
G|-------------------------------------------------------------------------|
D|-------------------------------------------------------------------------|
A|-------------------------------------------------------------------------|
E|----3--2---0-------3--4--3--2--0---------3--2---0-------3--4--3--2--0----|

0:29-0:34
G|-------------------------------------------------------------------------|
D|-------------------------------------------------------------------------|
A|-------------------------------------------------------------------------|
E|----------0-0-0-----------0-0-0-----------0-0-0-----------0-0-0----------|

0:34-0:40
G|-------------------------------------------------------------------------|
D|-------------------------------------------------------------------------|
A|-------------------------------------------------------------------------|
E|--1--4--0-0-0-0-0-0--1--4--0-0-0-0-0-0--1--4--0-0-0-0-0-0--1--4--0-0-0---|

0:40-0:55
G|-------------------------------------------------------------------------|
D|-------------------------------------------------------------------------|
A|-------------------------------------------------------------------------|
E|----3--2---0-------3--4--3--2--0---------3--2---0-------3--4--3--2--0----|

0:55-1:05
G|-------------------------------------------------------------------------|
D|-------------------------------------------------------------------------|
A|-------------------------------------------------------------------------|
E|----------0-0-0-----------0-0-0-----------0-0-0-----------0-0-0----------|

1:05-1:16 back to this first one which im not sure of once again
G|-------------------------------------------------------------------------|
D|-------------------------------------------------------------------------|
A|-------------------------------------------------------------------------|
E|-0-0-0-0-0-0-0-0-0-0-0-0-0-0-0-0-0-0-0-0-0-0-0-0-0-0-0-0-0-0-0-0-0-0-0-0-|

or 

G|-------------------------------------------------------------------------|
D|----------9-8-----------------9-8-----------------9-8-------------9-8----|
A|----7---------7--------7----------7---------7---------7-------7-------7--|
E|--0------------------0--------------------0-----------------0------------|

1:16-1:25 Guitar Solo
G|-------------------------------------------------------------------------|
D|-------------------------------------------------------------------------|
A|-------------------------------------------------------------------------|
E|--1--4--0-0-0-0-0-0--1--4--0-0-0-0-0-0--1--4--0-0-0-0-0-0--1--4--0-0-0---|

1:25-1:27           1:28  
G|-------------------------------------------------------------------------|
D|-------------------------------------------------------------------------|
A|-------------------------------------------------------------------------|
E|--1~~~~~~~~~~~~~~~~0-----------------------------------------------------|

1:28-1:33 (Guitar Breakdown) i.e play nothing

1:33-1:38
G|-------------------------------------------------------------------------|
D|-------------------------------------------------------------------------|
A|-------------------------------------------------------------------------|
E|--3--3--------3--3--3--6-------------------------------------------------|

1:38-1:56
G|-------------------------------------------------------------------------|
D|----------------------------------x3-------------------------------------|
A|-------------------------------------------------------------------------|
E|--0-0-0-0-0-0-0-0-0-0-12-12-12-12-----5-5-5-5-4-4-4-4-0-0-0-0-1-1-1-1----|

1:56-2:06
G|-------------------------------------------------------------------------|
D|-------------------------------------------------------------------------|
A|-------------------------------------------------------------------------|
E|--0-0-0-0-0-0-0-0---3-3-3-3-3---2-2-2-2---0-0---2-2----3-3---6-6---5-5---|

2:06-2:20
G|-------------------------------------------------------------------------|
D|-------------------------------------------------------------------------|
A|-------------------------------------------------------------------------|
E|---3p0-0-0-0--3p0-0-0-0--3p2-2-2-2---3p0-0-0-0--3p0-0-0-0---3h6-6-6-6----|

2:20-2:29
G|-------------------------------------------------------------------------|
D|-------------------------------------------------------------------------|
A|-------------------------------------------------------------------------|
E|--1--4--0-0-0-0-0-0--1--4--0-0-0-0-0-0--1--4--0-0-0-0-0-0--1--4--0-0-0---|

2:29-2:39
G|-------------------------------------------------------------------------|
D|-------------------------------------------------------------------------|
A|-------------------------------------------------------------------------|
E|--0-0-0-0-0-0-0-0---3-3-3-3-3---2-2-2-2---0-0---2-2----3-3---6-6---5-5---|

2:39-2:52
G|-------------------------------------------------------------------------|
D|-------------------------------------------------------------------------|
A|-------------------------------------------------------------------------|
E|----0----3---2-----0---2---3-----6---5~~~~-------------------------------|

2:52-3:31
G|-------------------------------------------------------------------------|
D|-------------------------------------------------------------------------|
A|-------------------------------------------------------------------------|
E|-3-3-3-6-6-6-2-2-2-2-2-2--2-3-3-3-6-6-6-5-5-2-2-2--3-3-3-6-6-6-5-5-6-6-2-|

3:31-3:35
G|-------------------------------------------------------------------------|
D|-------------------------------------------------------------------------|
A|-------------------------------------------------------------------------|
E|----2-2-2-2-2-2-2-2->2<\-------------------------------------------------|



| /  slide up
| \  slide down
| h  hammer-on
| p  pull-off
| ~  vibrato
| +  harmonic
| x  Mute note
============================================================================

            
            
Suggest correction
Creating personal tab
Creating personal tab
You can edit any tab online and save it as your Personal.

You can edit, replace or remove any tab part or add personal notes – all changes will be seen only by you.

Personal tabs can be accessed anytime from any device, even offline.
Learn more »
comments
print report bad tab
3 comments total.
0 reply
TrojanWarhorse 31 Jul 22, 2009 01:39 AM

0:55-1:05
G|-------------------------------------------------------------------------|
D|-------------------------------------------------------------------------|
A|-------------------------------------------------------------------------|
E|----------0-0-0-----------0-0-0-----------0-0-0-----------0-0-0----------|

I bleive these are double triplets.

0 reply
TrojanWarhorse 31 Jul 22, 2009 01:41 AM

Intro:
G|-------------------------------------------------------------------------|
D|-------------------------------------------------------------------------|
A|-------------------------------------------------------------------------|
E|---3--0----3--6---5--0---------------------------------------------------|

Ive interpreted the intro as such. I think you'll find it better suits the sound, and the more accurate guitar tabs.

0 reply
TrojanWarhorse 31 Jul 22, 2009 01:52 AM

0:12-0:14
G|-------------------------------------------------------------------------|
D|-------------------------------------------------------------------------|
A|----7------11-----10-----------------------------------------------------|
E|-------------------------------------------------------------------------|

suggest above
or
0:12-0:14
G|-------------------------------------------------------------------------|
D|-------------------------------------------------------------------------|
A|-------------------------------------------------------------------------|
E|----0------4------3------------------------------------------------------|

guest
You may want to rate the tab now too:
select rating
Wanna post a correction for this tab? Suggest correction