Oops, an error
Loading. Please wait.

Disciple tab

version 4
version 4
by Slayer
1,805 views 6 this week
1 commentread comment
1 2 3 4 5
1 last vote to show rating
add to favorites
×
Save as Personal and add changes to this tab that will be seen only by you. Learn more ›
×
You can save this tab as Personal to edit and correct it or add notes. All changes will be seen only by you. Learn more »
launch autoscroll
font size
0
reset
how to read this tab
guitar tuner
backing track
0:00
0:00
edit
Autoscroll
slow
fast
+/-
esc
set tempo
stop
Song: Disciple
Artist: Slayer
Album: God Hates Us All
Tuning: C# (C#, F#, B, E, G#, C#)
        It may also be played in Eb, but on CD it is in C#.

This has easily gotta be both one of my favorite songs by Slayer
and one of my favorite songs to play. Best way to learn is to play
it to the music, also the smartest way, and I include the solo in
that too. Other than that here's Disciple.
 
Update 3-11-2012: Fixed main riff and verse. 
Update 2-14-2012: Figured out a new part of verse.
Update 1-31-2012: Fixed some typo's and reworded some notes.

Intro:
|--------------|
|--------------|
|--------------|
|-------3--2---|
|5-2--5-1--0-5-|
|3-0--3------3-|

Main Riff:
If you don't want to, then you don't have to play the lone open string.
x8
|----------------|
|----------------|
|----------------|
|----------9-----|
|------------8-7-|
|0-000-000-------|
 . ... ...

Interlude:
x1
|------------------|
|------------------|
|------------------|
|9-----8-----7-----|
|--8-7---7-6---6-5-|
|------------------|
   . .   . .   . .

Verse 1:
x4
|----------------|
|----------------|
|----------------|
|----------------|
|----------------|
|1-3-2-0-3-4-3-0-|
 . . . . . . . .

x4
|----------------|
|----------------|
|----------------|
|----------------|
|----------------|
|1-3-2-1-3-4-3-1-|
 . . . . . . . .

x4
|----------------|
|----------------|
|----------------|
|----------------|
|----------------|
|3-3-2-1-3-4-3-1-|
 . . . . . . . .

Pre-Chorus:
x2
Kerry
|--------------------|
|--------------------|
|--------------------|
|--------------------|
|--------------------|
|000--000---000--000-|
 ...  ...   ...  ...

Jeff *Gallops same time as Kerry but uses his tremolo bar*
|--------------------|
|555~~555~~~555~~555~|
|--------------------|
|--------------------|
|--------------------|
|--------------------|

Interlude:
x4
|-------------|
|-------------|
|-------------|
|-------------|
|4-4\---------|
|2-2\-0000000-|
      .......

Verse 2:
x4
|----------------|
|----------------|
|----------------|
|----------------|
|----------------|
|1-3-2-0-3-4-3-0-|
 . . . . . . . .

x4
|----------------|
|----------------|
|----------------|
|----------------|
|----------------|
|1-3-2-1-3-4-3-1-|
 . . . . . . . .

x4
|----------------|
|----------------|
|----------------|
|----------------|
|----------------|
|3-3-2-1-3-4-3-1-|
 . . . . . . . .

Pre-Chorus Part 1:
Kerry
|----------------|
|----------------|
|----------------|
|----------------|
|----------------|
|000-000-0-0-0-0-|
 ... ... . . . .

Jeff
|----------------|
|----------------|
|----------------|
|----------------|
|----------------|
|000-000---------|
 ... ...

Pre-Chorus Part 2:
Kerry
|--------------------|
|--------------------|
|--------------------|
|--------------------|
|--------------------|
|000--000---000--000-|
 ...  ...   ...  ...

Jeff *Gallops same time as Kerry but uses his tremolo bar*
|--------------------|
|555~~555~~~555~~555~|
|--------------------|
|--------------------|
|--------------------|
|--------------------|

Main Riff:
x8
|----------------|
|----------------|
|----------------|
|----------9-----|
|------------8-7-|
|0-000-000-------|
 . ... ...

SOLO:
Kerry (Rhythm)
x8
|-------------|
|-------------|
|-------------|
|-------------|
|4-4\---------|
|2-2\-0000000-|
      .......

At same time as last note in solo
|----------------|
|----------------|
|----------------|
|----------------|
|5~~~~~~---------|
|3~~~~~~---------|

Jeff (Lead)
Basically Tremolo Pick The Whole Solo
|19b-19b-16-16-16-17-19-17-16-14-14-15-17-|
|-----------------------------------------|
|-----------------------------------------|
|-----------------------------------------|
|-----------------------------------------|
|-----------------------------------------|

|15-14-15-14----------------------------------|
|------------17-14-14-15-17-17-15-14----------|
|------------------------------------16-14-16~|
|---------------------------------------------|
|---------------------------------------------|
|---------------------------------------------|

*With Wah, But Can Still Be Played Without It*
|------------------------------------------|
|------------------------------------------|
|------------------------------------14----|
|---------14-------14-15----14-15-17----15-|
|14-15-17----15-17-------17----------------|
|------------------------------------------|

|--------------------------------14-14-15--|
|----------------------14-15-17------------|
|---14-15-----14-15-17---------------------|
|17-------17-------------------------------|
|------------------------------------------|
|------------------------------------------|
                                Bar on last note
|17-15-14---------------------------------|
|---------17-15-14------------------------|
|------------------16-14-16-16-16~~~~~----|
|-----------------------------------------|
|-----------------------------------------|
|-----------------------------------------|

Interlude:
x1
Kerry 
|-----------------------------------------------------|
|-----------------------------------------------------|
|-----------------------------------------------------|
|-----------------------------------------------------|
|-----------------------------------------------------|
|3p2-000-3p2-000-3322222222-3p2-000-3p2-000-3366666666|
 . . ... . . ... .......... . . ... . . ... ..........

Jeff
   *Natural Harmonic* Let ring
|----------------|
|-5*~~~~~~~~~~~~-|
|----------------|
|----------------|
|----------------|
|----------------|

x1
Kerry
|-----------------------------------------------------|
|-----------------------------------------------------|
|-----------------------------------------------------|
|-----------------------------------------------------|
|---------------------------------------------------6-|
|3p2-000-3p2-000-3322222222-3p2-000-3p2-000-3p2-000-4-|
 . . ... . . ... .......... . . ... . . ... .......

Jeff
Do not let ring
|-----------------------------------------------------|
|-----------------------------------------------------|
|-----------------------------------------------------|
|-----------------------------------------------------|
|5-------5------------------5-------5-------5-------6-|
|3-------3------------------3-------3-------3-------4-|

Verse 3:
x3
|--------------------------------|
|--------------------------------|
|--------------------------------|
|--------------------------------|
|------------------------77777777|
|000000000000000000000000--------|
 ................................

x1
|--------------------------------|
|--------------------------------|
|--------------------------------|
|--------------------------------|
|--------------------------------|
|55555555444444440000000011111111|
 ................................

x3
|--------------------------------|
|--------------------------------|
|--------------------------------|
|--------------------------------|
|------------------------77777777|
|000000000000000000000000--------|
 ................................

x1
|--------------------------------|
|--------------------------------|
|--------------------------------|
|--------------------------------|
|--------------------------------|
|55555555444444440000000011111111|
 ................................

Chorus:
x2
|------------------------------|
|------------------------------|
|------------------------------|
|----------------------3~~-2~~-|
|2~~-5~~-3~~-5-4~~-2~~-1~~-0~~-|
|0~~-3~~-2~~-3-2~~-0~~---------|

Verse 4:
x8
|-------------|
|-------------|
|-------------|
|-------------|
|4-4\---------|
|2-2\-0000000-|
      .......

Chorus:
x2
|------------------------------|
|------------------------------|
|------------------------------|
|------------------2~~-3~~-2~~-|
|2~~-5~~-4~~-5-4~~-0~~-1~~-0~~-|
|0~~-3~~-2~~-3-2~~-------------|

Then Slower x1 and let the last power chord ring
|------------------------------|
|------------------------------|
|------------------------------|
|------------------2~~-3~~-2~~-|
|2~~-5~~-4~~-5-4~~-0~~-1~~-0~~-|
|0~~-3~~-2~~-3-2~~-------------|

Outro Part 1:
May or may not be palm muted
Jeff Only:
|--------------------------------|
|--------------------------------|
|--------------------------------|
|--------------------------------|
|--------------------------------|
|3-3-3-6-6-6-2-2-2-2-2-2-2-2-2-2-|

|--------------------------------|
|--------------------------------|
|--------------------------------|
|--------------------------------|
|--------------------------------|
|3-3-3-6-6-6-5-5-5-2-2-2-2-2-2-2-|

|--------------------------------|
|--------------------------------|
|--------------------------------|
|--------------------------------|
|--------------------------------|
|3-3-3-6-6-6-5-5-5-6-6-6-2-2-2-2-|

|--------------------------------|
|--------------------------------|
|--------------------------------|
|--------------------------------|
|--------------------------------|
|3-3-3-6-6-6-2-2-2-2-2-2-2-2-2-2-|

Outro Part 2:
|--------------------------------|
|--------------------------------|
|--------------------------------|
|--------------------------------|
|5-5-5-8-8-8-4-4-4-4-4-4-4-4-4-4-|
|3-3-3-6-6-6-2-2-2-2-2-2-2-2-2-2-|

|--------------------------------|
|--------------------------------|
|--------------------------------|
|--------------------------------|
|5-5-5-8-8-8-7-7-7-4-4-4-4-4-4-4-|
|3-3-3-6-6-6-5-5-5-2-2-2-2-2-2-2-|

|--------------------------------|
|--------------------------------|
|--------------------------------|
|--------------------------------|
|5-5-5-8-8-8-7-7-7-8-8-8-4-4-4-4-|
|3-3-3-6-6-6-5-5-5-6-6-6-2-2-2-2-|

|--------------------------------|
|--------------------------------|
|--------------------------------|
|--------------------------------|
|5-5-5-8-8-8-4-4-4-4-4-4-4-4-4-4-|
|3-3-3-6-6-6-2-2-2-2-2-2-2-2-2-2-|

|--------------------------------|
|--------------------------------|
|--------------------------------|
|--------------------------------|
|5-5-5-8-8-8-4-4-4-4-4-4-4-4-4-4-|
|3-3-3-6-6-6-2-2-2-2-2-2-2-2-2-2-|

|--------------------------------|
|--------------------------------|
|--------------------------------|
|--------------------------------|
|5-5-5-8-8-8-7-7-7-4-4-4-4-4-4-4-|
|3-3-3-6-6-6-5-5-5-2-2-2-2-2-2-2-|

|--------------------------------|
|--------------------------------|
|--------------------------------|
|--------------------------------|
|5-5-5-8-8-8-7-7-7-8-8-8-4-4-4-4-|
|3-3-3-6-6-6-5-5-5-6-6-6-2-2-2-2-|

|--------------------------------|
|--------------------------------|
|--------------------------------|
|--------------------------------|
|5-5-5-8-8-8-4-4-4-4-4-4-4-4-4-4-|
|3-3-3-6-6-6-2-2-2-2-2-2-2-2-2-2-|
             . . . . . . . . . . 

Well there you go. 
SLAYER
Suggest correction
Creating personal tab
Creating personal tab
You can edit any tab online and save it as your Personal.

You can edit, replace or remove any tab part or add personal notes – all changes will be seen only by you.

Personal tabs can be accessed anytime from any device, even offline.
Learn more »
Give kudos to tab author, rate the tab!
1 2 3 4 5
comments
print report bad tab
1 comment total.
0 reply
notenoughcharac 70 Apr 18, 2013 11:50 AM

Many parts are wrong, but overall it's a good tab

guest
You may want to rate the tab now too:
select rating
Wanna post a correction for this tab? Suggest correction