Oops, an error
Loading. Please wait.

Hell Awaits album tab

version 1
version 1

Album

Whole song

by Slayer
29,549 views 57 this week
1 commentread comment
1 2 3 4 5
x 5
add to favorites
×
Save as Personal and add changes to this tab that will be seen only by you. Learn more ›
×
You can save this tab as Personal to edit and correct it or add notes. All changes will be seen only by you. Learn more »
launch autoscroll
font size
0
reset
how to read this tab
guitar tuner
backing track
0:00
0:00
edit
Autoscroll
slow
fast
+/-
esc
set tempo
stop
Author
Difficulty
----------------------------------------------------------------------------
                 Hell Awaits Album - Slayer
----------------------------------------------------------------------------
Tabbed by: Brack

1. Hell Awaits


Tuning Eb


 RIFF 1 INTRO x1

|KING
|-------------------------------------------------------------|
|-------------------------------------------------------------|
|-------------------------------------------------------------|
|---------------------------------------------------------3---|
|-2---------------------------------------------------2---1---|
|-0---------------------------------------------------0-------|
|
|
|HANNEMAN
|-------------------------------------------------------------|
|-------------------------------------------------------------|
|-------------------------------------------------------------|
|-------------------------------------------------------------|
|-------------------------------------------------------------|
|-0-0-0-0-0-0-0-0-0-0-0-0-0-0-0-0-0-0-0-0-0-0-0-0-0-0-0-0-0-0-|
  . . . . . . . . . . . . . . . . . . . . . . . . . . . . . .


|KING
|-------------------------------------------------------------|
|-------------------------------------------------------------|
|-------------------------------------------------------------|
|-------------------------------------------------------------|
|-----------------------------------------------------2---3---|
|-----------------------------------------------------0---1---|
|
|
|HANNEMAN
|-------------------------------------------------------------|
|-------------------------------------------------------------|
|-------------------------------------------------------------|
|-------------------------------------------------------------|
|-------------------------------------------------------------|
|-0-0-0-0-0-0-0-0-0-0-0-0-0-0-0-0-0-0-0-0-0-0-0-0-0-0-0-0-0-0-|
  . . . . . . . . . . . . . . . . . . . . . . . . . . . . . .


|KING
|-------------------------------------------------------------|
|-------------------------------------------------------------|
|-------------------------------------------------------------|
|---------------------------------------------------------3---|
|-----------------------------------------------------2---1---|
|-----------------------------------------------------0-------|
|
|
|HANNEMAN
|-------------------------------------------------------------|
|-------------------------------------------------------------|
|-------------------------------------------------------------|
|-------------------------------------------------------------|
|-------------------------------------------------------------|
|-0-0-0-0-0-0-0-0-0-0-0-0-0-0-0-0-0-0-0-0-0-0-0-0-0-0-0-0-0-0-|
  . . . . . . . . . . . . . . . . . . . . . . . . . . . . . .


|KING                                      BAR N.H.BAR
|-------------------------------------------------------------|
|-------------------------------------------------------------|
|-------------------------------------------------------------|
|-----------------------------------------------------9--10---|
|-----------------------------------------0\\\h3\\\---7---8---|
|-------------------------------------------------------------|
|
|
|HANNEMAN
|-------------------------------------------------------------|
|-------------------------------------------------------------|
|-------------------------------------------------------------|
|-------------------------------------------------------------|
|-------------------------------------------------------------|
|-0-0-0-0-0-0-0-0-0-0-0-0-0-0-0-0-0-0-0-0-0-0-0-0-0-0-0-0-0-0-|
  . . . . . . . . . . . . . . . . . . . . . . . . . . . . . .


|KING
|-------------------------------------------------------------|
|-------------------------------------------------------------|
|-------------------------------------------------------------|
|-------------------------------------------------------------|
|-----------------------------------------x\\\\\\\\---2---3---|
|-----------------------------------------------------0---1---|
|
|
|HANNEMAN
|-------------------------------------------------------------|
|-------------------------------------------------------------|
|-------------------------------------------------------------|
|-------------------------------------------------------------|
|-------------------------------------------------------------|
|-0-0-0-0-0-0-0-0-0-0-0-0-0-0-0-0-0-0-0-0-0-0-0-0-0-0-0-0-0-0-|
  . . . . . . . . . . . . . . . . . . . . . . . . . . . . . .


|KING
|-------------------------------------------------------------|
|-------------------------------------------------------------|
|-------------------------------------------------------------|
|---------------------------------------------------------3---|
|-----------------------------------------------------2---1---|
|-----------------------------------------------------0-------|
|
|
|HANNEMAN
|-------------------------------------------------------------|
|-------------------------------------------------------------|
|-------------------------------------------------------------|
|-------------------------------------------------------------|
|-------------------------------------------------------------|
|-0-0-0-0-0-0-0-0-0-0-0-0-0-0-0-0-0-0-0-0-0-0-0-0-0-0-0-0-0-0-|
  . . . . . . . . . . . . . . . . . . . . . . . . . . . . . .



|KING
|----------------|
|----------------|
|----------------|
|----------------|
|---------7---8--|
|-------0-5---6--|
|       .
|
|HANNEMAN
|----------------|
|----------------|
|----------------|
|----------------|
|----------------|
|-0-0-0-0-0-0-0--|
  . . . . . . .



 RIFF 2 INTRO x1 BOTH

|-----------------------------------------------------------------|
|-----------------------------------------------------------------|
|-----------------------------------------------------------------|
|---------------------------------------------------------10-9-10-|
|----------------------------------------------------------8-7--8-|
|-0-0-0-0-0-0-0-0-0-0-0-0-0-0-0-0-0-0-0-0-0-0-0-0-0-0-0-0---------|
  . . . . . . . . . . . . . . . . . . . . . . . . . . . .


|-----------------------------------------------------------------|
|-----------------------------------------------------------------|
|-----------------------------------------------------------------|
|-----------------------------------------------------------------|
|----------------------------------------------------------8-7-8--|
|-0-0-0-0-0-0-0-0-0-0-0-0-0-0-0-0-0-0-0-0-0-0-0-0-0-0-0-0--6-5-6--|
  . . . . . . . . . . . . . . . . . . . . . . . . . . . .


|-----------------------------------------------------------------|
|-----------------------------------------------------------------|
|-----------------------------------------------------------------|
|--------------------------------------------10-----7-------------|
|---------------------------------------------8-----5-----7--8--5-|
|-0-0-0-0-0-0-0-0-0-0-0-0-0-0-0-0-0-0-0-0-0------0-----0--5--6--3-|
  . . . . . . . . . . . . . . . . . . . . .      .     .


|-----------------------------------------------------------------|
|-----------------------------------------------------------------|
|-----------------------------------------------------------------|
|--------------------------------------------------3--4--5--4-----|
|--------------------------------------------------1--2--3--2--3--|
|-0-0-0-0-0-0-0-0-0-0-0-0-0-0-0-0-0-0-0-0-0-0-0-0--------------1--|
  . . . . . . . . . . . . . . . . . . . . . . . .


|-----------------------------------------------------------------|
|-----------------------------------------------------------------|
|-----------------------------------------------------------------|
|---------------------------------------------------------10-9-10-|
|----------------------------------------------------------8-7--8-|
|-0-0-0-0-0-0-0-0-0-0-0-0-0-0-0-0-0-0-0-0-0-0-0-0-0-0-0-0---------|
  . . . . . . . . . . . . . . . . . . . . . . . . . . . .


|-----------------------------------------------------------------|
|-----------------------------------------------------------------|
|-----------------------------------------------------------------|
|------------------------------------10-----7---------------------|
|--------------------------8-7-8------8-----5-----7--8--5---------|
|-0-0-0-0-0-0-0-0-0-0-0-0--6-5-6--0------0-----0--5--6--3---------|
  . . . . . . . . . . . .         .      .     .


|-----------------------------------------------------------------|
|-----------------------------------------------------------------|
|-----------------------------------------------------------------|
|---------------------------------10--9-10--9--7------------------|
|----------------------------------8--7--8--7--5---7--8--9--5--4--|
|-0-0-0-0-0-0-0-0-0-0-0-0-0-0-0-0------------------5--6--7--3--2--|
  . . . . . . . . . . . . . . . .



 RIFF 3 INTRO x2

|-------------------------------------------------------|
|-------------------------------------------------------|
|-------------------------------------------------------|
|------------------------------------------------3---3--|
|-2----------------------------------------------1---1--|
|-0--0-0-0--0-0-0--0-0-0--0-0-0--0-0-0--0-0-0-0----0----|
  .  . . .  . . .  . . .  . . .  . . .  . . . .    .



 RIFF 4 INTRO x5

|-------------------------------------------------------|
|-------------------------------------------------------|
|-------------------------------------------------------|
|-2-------------3-------------4-------------4--3--2-----|
|-2-------------3-------------4-------------4--3--2--3--|
|---0-0-0-0-0-0---0-0-0-0-0-0---0-0-0-0-0-0----------3--|
    . . . . . .   . . . . . .   . . . . . .



 FILL 1

|-------------------------|
|-------------------------|
|-2--3--------------------|
|-2--3--4--5--4--3--2-----|
|-------4--5--4--3--2--3--|
|----------------------3--|




 RIFF 5 INTRO x2

|---------------------------------------------|
|---------------------------------------------|
|---------------------------------------------|
|---------------------------------------------|
|-9---9---9---9---9---9---9---9-----9---9---9-|
|-7-777-777-887-887-777-777-887-10107-777-777-|
|---------------------------------------------|
    ..  ..  ..  ..  ..  ..  ..  ....  ..  ..

|---------------------------------------------|
|---------------------------------------------|
|---------------------------------------------|
|---9-10---10---9----10-12-----12----10----10-|
|-887--8--888-887-10108-10-101010-10108-10108-|
|---------------------------------------------|
  ..      ..  ..  ....     ....   ....  ....



 FILL 2

|---------------------------|
|---------------------------|
|---------------------------|
|-9-------------5-4-5-7-5-7-|
|-7-------------3-2-3-5-3-5-|
|---------------------------|
   x



 RIFF 6A INTO MAIN x1

|KING
|-------------------------------------------------------------------------|
|-------------------------------------------------------------------------|
|-------------------------------------------------------------------------|
|-7\6--------------7\6-----5\4----------7\6--------------7\6-----10---10--|
|-5\4--------------5\4-----3\2----------5\4--------------5\4------8----8--|
|-----000000000000-----000-----00000000-----000000000000-----000----------|
|     ............     ...     ........     ............     ...
|
|HANNEMAN
|-------------------------------------------------------------------------|
|-------------------------------------------------------------------------|
|-------------------------------------------------------------------------|
|-------------------------------------------------------------------------|
|-2---------------------------------------------------------------x\\\\\\-|
|-0-----------------------------------------------------------------------|
   x



 RIFF 6 MAIN x3

|-------------------------------------------------------------------------|
|-------------------------------------------------------------------------|
|-------------------------------------------------------------------------|
|-7\6--------------7\6-----5\4----------7\6--------------7\6-----10---10--|
|-5\4--------------5\4-----3\2----------5\4--------------5\4------8----8--|
|-----000000000000-----000-----00000000-----000000000000-----000----------|
      ............     ...     ........     ............     ...



 RIFF 7 VERSE x2

|-----------------------------------------------|
|-----------------------------------------------|
|-----------------------------------------------|
|---------------------------------------5---3---|
|------------------3h5------------------5---3---|
|-3333333333333333-----3333333333333333---3-----|
  ................     ................   .


|-----------------------------------------------|
|-----------------------------------------------|
|-----------------------------------------------|
|---------------------------------------3-------|
|------------------3h5------------------3---6p5-|
|-3333333333333333-----3333333333333333---5-----|
  ................     ................   .



 RIFF 8 BRIDGE x4

|---------------------------------------|
|---------------------------------------|
|---------------------------------------|
|---------------------------------------|
|-2222222222222222-6666-5555-0000-3333--|
|---------------------------------------|
  ................ .... .... .... ....


 RIFF 9 CHORUS x1

|KING
|------------------------------------------|
|------------------------------------------|
|------------------------------------------|
|------------------------------------------|
|------------------------------------x\\\--|
|-00000000000000000000000000000000\\\x\\\--|
| ................................
|
|HANNEMAN
|------------------------------------------|
|------------------------------------------|
|------------------------------------------|
|------------------------------------------|
|------------------------------------------|
|-0000000000000000000000000000000000000000-|
  ........................................



 RIFF 6 MAIN x2

 RIFF 7 VERSE x2

 RIFF 8 BRIDGE x4


 RIFF 10 INTERLUDE x4

|---------------------------------------|
|---------------------------------------|
|---------------------------------------|
|-10\9------7/8------8/10------7/8------|
|--8\7------7/8------8/10------7/8------|
|------0000-----0000------0000-----0000-|
       ....     ....      ....     ....


 RIFF 11 INTERLUDE x4

|---------------------------------------|
|---------------------------------------|
|---------------------------------------|
|-10\9------7/8------8/9------9/10------|
|--8\7------7/8------8/9------9/10------|
|------0000-----0000-----0000------0000-|
       ....     ....     ....      ....



 SOLO 1 HANNEMAN
  BAR        BAR    BAR N.H.BAR
|-------------------------------|
|------------------0\\\h5\/\\\--|
|-12p0\\\\----------------------|
|-12p0\\\\----------------------|
|-------------------------------|
|-----------0\\\\---------------|

                                      BAR        BAR
|------------------------------------------------------------|
|------------------------------------------------------------|
|----------------------------------23b//\/\/\\---------------|
|-------------13-15--17b/\/\/\\------------------------------|
|-------13-15-----------------------------------------x\\\\--|
|-13-16-----------------------------------------0\\\\-x\\\\--|

                                 A.H.
|---------------------------------------|
|-13b-----------------------------------|
|-13b----------13-14-16-13----13-14b^^--|
|-----12-13-15-------------15-----------|
|---------------------------------------|
|---------------------------------------|


|--------------------------------------------------------------|
|--------------------------------------------------------------|
|-13-16-14-13--------------------------------------------------|
|-------------15-13-12-15-13-12--------------------------------|
|-------------------------------14-12-11-14-12-11--------------|
|-------------------------------------------------13-11-10b----|


|-----------------------------------------------------------------|
|-----------------------------------------------------------------|
|-------------------------------------13h15p13-13h15p13-17fb^^----|
|-------------------13h15p13-13h15p13-----------------------------|
|-13h15p13-13h15p13-----------------------------------------------|
|-----------------------------------------------------------------|


|--------------------------------------|
|--------------------------------------|
|-13-14-16-14-13-----------------------|
|----------------15-13-12-13fb-13b^----|
|--------------------------------------|
|--------------------------------------|


|----------------------------------------------------------------------------|
|----------------------------12h15p12----12h15p12----12h15p12----12h15p12----|
|----------------------11-13----------14----------14----------14----------14-|
|-------------11-12-13-------------------------------------------------------|
|-------11-14----------------------------------------------------------------|
|-11-14----------------------------------------------------------------------|


|-----------------------------------------------|
|-12h15p12----12h15p12----12h15p12----12h15p12--|
|----------14----------14----------14-----------|
|-----------------------------------------------|
|-----------------------------------------------|
|-----------------------------------------------|


|----------------------------------------------------------------|
|----15h18p15----15h18p15----15h18p15----15h18p15----15h18p15----|
|-17----------17----------17----------17----------17----------17-|
|----------------------------------------------------------------|
|----------------------------------------------------------------|
|----------------------------------------------------------------|


|-----------------------------------/22fb^^\\----|
|-15h18p15----15h18p15----15h18p15---------------|
|----------17----------17------------------------|
|------------------------------------------------|
|------------------------------------------------|
|------------------------------------------------|




RIFF 12 x8 UNDER SOLO 1

|------------|
|------------|
|------------|
|-6-9-8-9----|
|-4-7-6-7-9--|
|---------7--|




 RIFF 8A x5 UNDER SOLO 1

|---------------------------------------|
|---------------------------------------|
|---------------------------------------|
|---------------------------------------|
|------------------3333-2222------------|
|-4444444444444444-----------2222-5555--|
  ................ .... .... .... ....



 FILL 3 UNDER SOLO 1

|---------------------------------------|
|---------------------------------------|
|---------------------------------------|
|------------------5----4---------------|
|------------------3----2----4----7-----|
|-4444444444444444-----------2----5-----|
  ................



 RIFF 6A x1

 RIFF 6 MAIN x1

 RIFF 7 VERSE x2

 RIFF 8 BRIDGE x4

 RIFF 9 CHORUS x1

 RIFF 6 MAIN x2


 RIFF 13 INTERLUDE x4

|-------------------------------------------|
|-------------------------------------------|
|-------------------------------------------|
|-8/9------9/11------11/12------------------|
|-6/7------7//9-------9/10------------------|
|-----0000------0000-------0000000000000000-|
      ....      ....       ................


 RIFF 14 INTERLUDE x3

|-------------------------------------------|
|-------------------------------------------|
|-------------------------------------------|
|-8/9------9/10------10/11------11/12-------|
|-6/7------7//8-------8//9-------9/10-------|
|-----0000------0000-------0000-------00000-|
      ....      ....       ....       .....

 FILL 4
|KING
|------------------------------------------|
|------------------------------------------|
|------------------------------------------|
|-8/9------9/10------10/12------10/9-------|
|-6/7------7//8-------8/10-------8/7-------|
|-----0000------0000-------0000------00000-|
|     ....      ....       ....      .....
|
|HANNEMAN
|------------------------------------------|
|------------------------------------------|
|------------------------------------------|
|-8/9------9/10------10/12-----------------|
|-6/7------7//8-------8/10-------2---------|
|-----0000------0000-------0000--0-3-2-1-0-|
      ....      ....       ....   x. . . .



 SOLO 2 KING
  A.H.  BAR/\/\/\/\/\/\/\/\  BAR    N.H. BAR
|----------------------------------------------------|
|----------------------------------------------------|
|-2b^^--2h3p2p0h3p2p0h3p2p0-0\\\\\\h5////\/\/\\\\----|
|----------------------------------------------------|
|----------------------------------------------------|
|----------------------------------------------------|


|-------------------------------------------------------|
|-20-16p13-20-16p13-20-14p13-20-16p13-20-16p13-20-14p13-|
|-------------------------------------------------------|
|-------------------------------------------------------|
|-------------------------------------------------------|
|-------------------------------------------------------|
   T        T        T        T        T        T

|----------------------------//23b^^^----|
|-20-16p13-20-16p13-20-14p13-------------|
|----------------------------------------|
|----------------------------------------|
|----------------------------------------|
|----------------------------------------|
   T        T        T

|-23-18-20-21-23-21-20-18----------------------------------------------------|
|-------------------------20-19-17-20-19-17----------------------------------|
|-------------------------------------------20-18-17-20-18-17----------------|
|-------------------------------------------------------------19-17-16-------|
|----------------------------------------------------------------------18b\\-|
|----------------------------------------------------------------------------|


|-------------------------------------------------------------------------|
|-------------------------------------------------------------------------|
|-20-17p15p14-20-17p15p14-20-17p15p14-18-15p14p12-18-15p14p12-18-15p14p12-|
|-------------------------------------------------------------------------|
|-------------------------------------------------------------------------|
|-------------------------------------------------------------------------|
   T           T           T           T           T           T

|----------------------------------------------------------------------|
|----------------------------------------------------------------------|
|-17-14p12p11-17-14p12p11-17-14p12p11-15-12p11p9-15-12p11p9-15-12p11p9-|
|----------------------------------------------------------------------|
|----------------------------------------------------------------------|
|----------------------------------------------------------------------|
   T           T           T           T          T          T

  N.H.BAR      BAR///\/\/\/\\\\\ ///\/\/\/\/\/\\\\ ///\/\/\/\/\N.H. BAR
|------------|------------------------------------------------------------|
|------------|------------------------------------------------------------|
|-6/\/\\\----|-3p2p0h3p2p0h3p2p0-3p2p0h3p2p0h3p2p0-3p2p0h3p2p0h3///\/\\\--|
|------------|------------------------------------------------------------|
|------------|------------------------------------------------------------|
|------------|------------------------------------------------------------|

      BAR
|-------------------|
|-/23b//\/\/\/\\\\--|
|-------------------|
|-------------------|
|-------------------|
|-------------------|




 RIFF 15 x7 UNDER SOLO 2

|--------------------------|
|--------------------------|
|--------------------------|
|--------------5-4-5-7-----|
|-4------------3-2-3-5-7-5-|
|-222222222222---------5-3-|
  ............



 FILL 5 END

|--------------------------------|-------------------|
|--------------------------------|-------------------|
|--------------------------------|-------------------|
|--------------5\4-5\4-5\4-5\4---|-------------------|
|-4------------3\2-3\2-3\2-3\2-5-|------------4\\----|
|-222222222222-----------------3-|------------2\\----|
  ............

2. Kill Again

Tuning Eb


 RIFF 1 INTRO x4

|------------------------|
|------------------------|
|------------------------|
|-4----------------------|
|-2-----3-2--------2h3p2-|
|---000-----000000-------|
    ...     ......



 RIFF 2 INTRO x4

|---------------------------|
|---------------------------|
|---------------------------|
|-4-----5-----3-------------|
|-2-----3-----1-------------|
|---000---000---000-3-2-1-0-|
    ...   ...   ... . . . .



 RIFF 3 BREAK x2

|------------------------|------------------------|
|------------------------|------------------------|
|------------------------|------------------------|
|------------------------|------------------------|
|--------------------4\3-|--------------------3---|
|-0000-0000-0000-000-2\1-|-0000-0000-0000-000-1---|
  .... .... .... ...       .... .... .... ...



 RIFF 4 INTRO x1

|KING x3
|------------------------------------|
|------------------------------------|
|------------------------------------|
|-4444-5555-4444-7777-4444-5555-4444-|
|------------------------------------|
|------------------------------------|
|
|
|HANNEMAN x3
|------------------------------------|
|------------------------------------|
|------------------------------------|
|------------------------------------|
|-4444-5555-4444-7777-4444-5555-4444-|
|------------------------------------|



|KING
|------------------------------------|
|------------------------------------|
|------------------------------------|
|---------------------6---5----------|
|-4444-5555-4444-7777-4---3---7---6--|
|-----------------------------5---4--|
|
|
|HANNEMAN
|------------------------------------|
|------------------------------------|
|------------------------------------|
|-4444-5555-4444-7777-6---5----------|
|---------------------4---3---7---6--|
|-----------------------------5---4--|




 RIFF 4A INTRO x1

|x3
|------------------------------------|
|------------------------------------|
|------------------------------------|
|------------------------------------|
|------------------------------------|
|-1111-2222-1111-4444-1111-2222-1111-|



|x1
|-------------------------------|
|-------------------------------|
|-------------------------------|
|-------------------------------|
|-------------------------------|
|-1111-2222-1111-4444-1111-2222-|





 RIFF 3 BREAK x2


 RIFF 5 INTRO x4

|-----------------------------------------|
|-----------------------------------------|
|-----------------------------------------|
|-------------------------------3333-2222-|
|-4444-5555-----------2222-3333-----------|
|-----------3333-4444---------------------|




 RIFF 3 BREAK x2


 RIFF 6A INTO VERSE x1

|KING
|---------------------------------|---------------------------------|
|---------------------------------|---------------------------------|
|---------------------------------|---------------------------------|
|---------------------------------|---------------------------8-----|
|-2-------------------------------|-2-------------------------6-----|
|-0---------------------------3-1-|-0-------------------------------|
|  x                          . .    x
|
|HANNEMAN
|---------------------------------|---------------------------------|
|---------------------------------|---------------------------------|
|---------------------------------|---------------------------------|
|---------------------------------|---------------------------8-----|
|-----7-----8-----7-----8----10-8-|-----7-----8-----7---8-----6-----|
|-0-0---0-0---0-0---0-0---0-0-----|-0-0---0-0---0-0---0---0-0-------|
  . .   . .   . .   . .   . .       . .   . .   . .   .   . .


|KING
|---------------------------------|---------------------------------|
|---------------------------------|---------------------------------|
|---------------------------------|---------------------------------|
|---------------------------------|---------------------------8-----|
|-2-------------------------------|---------------------------6-----|
|-0---------------------------3-1-|-0-0-0-0-0-0-0-0-0-0-0-0-0-------|
|  x                          . .   . . . . . . . . . . . . .
|
|HANNEMAN
|---------------------------------|---------------------------------|
|---------------------------------|---------------------------------|
|---------------------------------|---------------------------------|
|---------------------------------|---------------------------8-----|
|-----7-----8-----7----8-----10-8-|---------------------------6-----|
|-0-0---0-0---0-0---0-0---0-0-----|-0-0-0-0-0-0-0-0-0-0-0-0-0-------|
  . .   . .   . .   . .   . .       . . . . . . . . . . . . .



 RIFF 6 VERSE x6

|---------------------------------|---------------------------------|
|---------------------------------|---------------------------------|
|---------------------------------|---------------------------------|
|---------------------------------|---------------------------8-----|
|-----7-----8-----7-----8----10-8-|-----7-----8-----7---8-----6-----|
|-000---000---000---000---000-----|-000---000---000---0---000-------|
  ...   ...   ...   ...   ...       ...   ...   ...   .   ...



 RIFF 7 CHORUS x1

|---------------------------------------|
|---------------------------------------|
|---------------------------------------|
|------------------4------------------4-|
|-4----------------2-1111111111111111-2-|
|-2222222222222222----------------------|
  ................   ................


|---------------------------------------|
|---------------------------------------|
|---------------------------------------|
|------------------4------------------3-|
|-4----------------2-1111111111111111-1-|
|-2222222222222222----------------------|
  ................   ................  x



 RIFF 8 POSTCHORUS x1

|x2
|-----------------------------------------------------------------|
|-----------------------------------------------------------------|
|-----------------------------------------------------------------|
|-----3---4---3-------6---7---6-------3---4---3-------------------|
|-----1---2---1-------4---5---4-------1---2---1-------------2-1---|
|-0-0---0---0---0-0-0---0---0---0-0-0---0---0---0-3-2-0-2-3-----2-|
  . .   .   .   . . .   .   .   . . .   .   .   . . . . . . . . .

|x1
|-----------------------------------------------------------------|
|-----------------------------------------------------------------|
|-----------------------------------------------------------------|
|-----3---4---3-------6---7---6-------3---4---3-------------------|
|-----1---2---1-------4---5---4-------1---2---1---5-5-------------|
|-0-0---0---0---0-0-0---0---0---0-0-0---0---0---0-3-3-------------|
  . .   .   .   . . .   .   .   . . .   .   .   .    x



 RIFF 6 VERSE x4

 RIFF 7 CHORUS x1

 RIFF 8 POSTCHORUS x1


 RIFF 9 BRIDGE x2

|-----------------------------------|-----------------------------|
|-----------------------------------|-----------------------------|
|-----------------------------------|-----------------------------|
|-777777-888777-777777-111111101010-|-777777-888777-777777----888-|
|-555555-666555-555555--9-9-9-8-8-8-|-555555-666555-555555-999666-|
|-----------------------------------|----------------------777----|




 SOLO 1 HANNEMAN

|-------18----------18----|-------------------------------------------|
|----------17----------18-|-15-17-18-17-15----18-17-15----18-17-15----|
|-x\\\\-------18h19-------|----------------18----------18----------18-|
|-x\\\\-------------------|-------------------------------------------|
|-------------------------|-------------------------------------------|
|-------------------------|-------------------------------------------|


|----------------------------------------------|
|-18-17-15-------------------------------------|
|----------18-16-15-18-16-15-------------------|
|----------------------------17-15-14-17-15-14-|
|----------------------------------------------|
|----------------------------------------------|

                                                     A.H.
|-----------------------------------------------------------|
|-----------------------------------------------------------|
|-----------------------------------------------------------|
|----------------------------------------------------14b^^--|
|-16-14-13-16-14-13----------------13-14-16-13-14-16--------|
|-------------------15-13-12-13-15--------------------------|


|----------------------------------------------------|
|----------------------------------------------------|
|-15-16-18-16-15-------------------------------------|
|----------------17-15-14-17-15-14-------------------|
|----------------------------------16-14-13-16-14-13-|
|----------------------------------------------------|

                                          N.H. BAR
|----------------------|----------------------------|
|----------------------|-15b--17b^------------------|
|----------------------|-15b--16b^--12h14-12\\\\----|
|----------------------|----------------------------|
|----------------------|----------------------------|
|-15-13-12-15-13-12\\--|----------------------------|




 RIFF 10 x2 UNDER SOLO 1

|-----------------------------------|-----------------------------|
|-----------------------------------|-----------------------------|
|-----------------------------------|-----------------------------|
|-----------------------------------|-----------------------------|
|-888888-999888-888888-121212111111-|-888888-999888-888888-555999-|
|-666666-777666-666666-101010-9-9-9-|-666666-777666-666666-333777-|




 SOLO 2 KING
   BAR            BAR           BAR/\/\/\/\/\/\/\/\/\/\/BAR
|-------------------------------------------------------------|
|-------------------------------------------------------------|
|-------77777777-0\\\\/\/\/\/\\\h2p1p0h2p1p0h2p1p0h2p1p0\\\\--|
|-------------------------------------------------------------|
|-------------------------------------------------------------|
|-0\\\\-------------------------------------------------------|


|----------19-20-22-20-19---------------------------------------------------
|19-21-22----------------22-21-19-22-21-19---------------------------------
|-------------------------------------------22-20-19-22-20-19---------------
|-------------------------------------------------------------21-19-1-21-19-
|---------------------------------------------------------------------------
|---------------------------------------------------------------------------


|----------------------------------------------------------|
|----------------------------19-21-22-21-19----------------|
|----------19-20-22-19-20-22----------------22-20-19b\\----|
|-18-19-21-------------------------------------------------|
|----------------------------------------------------------|
|----------------------------------------------------------|




 RIFF 9 x2 UNDER SOLO 2


 SOLO 3 HANNEMAN

|-3-4-6-4-3-------------------------------------------|
|-----------6-5-3-6-5-3-------------------------------|
|-----------------------6-4-3-6-4-3-----------3-4b^^--|
|-----------------------------------5-3-2-3-5---------|
|-----------------------------------------------------|
|-----------------------------------------------------|

  BAR/\/\/\/\/\/\/\/\/\/\/\/\/\/\/\/\/\/\/\/\/\/\/\/\
|-----------------------------------------------------|
|-----------------------------------------------------|
|-0h3h4p3p0h4p3p0h6p4p0h6p4p0h7p6p0h7p6p0h9p7p0h9p7p0-|
|-----------------------------------------------------|
|-----------------------------------------------------|
|-----------------------------------------------------|


|---------------------------------------------------------|
|-10-3h6-10-3h6-10-3h6-10-3h6-11-3h6-11-3h6-10-3h6-10-3h6-|
|---------------------------------------------------------|
|---------------------------------------------------------|
|---------------------------------------------------------|
|---------------------------------------------------------|
   T      T      T      T      T      T      T      T
                                                   BAR
|----------------------------------------------------------|
|-9-3h6-9-3h6-9-3h6-9-3h6-9-3h6-9-3h6-9-3h6-9-3h6----------|
|----------------------------------------------------------|
|----------------------------------------------------------|
|-------------------------------------------------0\\\\----|
|----------------------------------------------------------|
  T     T     T     T     T     T     T     T



 RIFF 11 x1 UNDER SOLO 3

|-----------------------------|-----------------------------|
|-----------------------------|-----------------------------|
|-----------------------------|-----------------------------|
|-----------------------------|-----------------------------|
|-----------------------------|-----------------------------|
|-000000000000000000000000000-|-333333333333333333333333333-|
  ...........................   ...........................


|-----------------------------|-----------------------------|
|-----------------------------|-----------------------------|
|-----------------------------|-----------------------------|
|-----------------------------|-----------------------------|
|-----------------------------|-----------------------------|
|-000000000000000000000000000-|-666666666666666666666666666-|
  ...........................   ...........................



 RIFF 5 BREAK x4


 SOLO 4 KING

|-----------------------------------------------------------------|
|-----------------------------------------------------------------|
|-12-9h10-12-9h10-12-9h10-12-9h10-12-9h10-12-9h10-12-9h10-12-9h10-|
|-----------------------------------------------------------------|
|-----------------------------------------------------------------|
|-----------------------------------------------------------------|
   T       T       T       T       T       T       T       T

|-------------------------------------------------------|
|-------------------------------------------------------|
|-13-10h12-13-10h12-13-10h12-15-12h13-15-12h13-15-12h13-|
|-------------------------------------------------------|
|-------------------------------------------------------|
|-------------------------------------------------------|
   T        T        T        T        T        T

|-------------------------------------------------------|
|-------------------------------------------------------|
|-16-13h15-16-13h15-16-13h15-18-15h16-18-15h16-18-15h16-|
|-------------------------------------------------------|
|-------------------------------------------------------|
|-------------------------------------------------------|
   T        T        T        T        T        T

|-181818-15-18-16-15----------------181818-15-18-16-15----------------|
|--------------------18-17-15--------------------------18-17-15-------|
|-----------------------------18-16-----------------------------18-16-|
|---------------------------------------------------------------------|
|---------------------------------------------------------------------|
|---------------------------------------------------------------------|


|-181818-15-18-16-15----------------181818-15-18-16-15----------------|
|--------------------18-17-15--------------------------18-17-15-------|
|-----------------------------18-16-----------------------------18-16-|
|---------------------------------------------------------------------|
|---------------------------------------------------------------------|
|---------------------------------------------------------------------|




 RIFF 11 x1 UNDER SOLO 4


 RIFF 6B INTO VERSE x1

|---------------------------------|---------------------------------|
|---------------------------------|---------------------------------|
|---------------------------------|---------------------------------|
|---------------------------------|---------------------------8-----|
|-----7-----8-----7-----8----10-8-|-----7-----8-----7---8-----6-----|
|-000---000---000---000---000-----|-000---000---000---0---000-------|
  ...   ...   ...   ...   ...       ...   ...   ...   .   ...


|KING
|---------------------------------|---------------------------------|
|---------------------------------|---------------------------------|
|---------------------------------|---------------------------------|
|---------------------------------|---------------------------8-----|
|-----7-----8-----7-----8----10-8-|-----7-----8-----7---8-----6-----|
|-000---000---000---000---000-----|-000---000---000---0---000-------|
| ...   ...   ...   ...   ...       ...   ...   ...   .   ...
|
|HANNEMAN                                                      A.H.
|---------------------------------|---------------------------------|
|---------------------------------|---------------------------------|
|---------------------------------|---------------------------------|
|---------------------------------|---------------------------------|
|-----7-----8-----7-----8----10-8-|-----7-----8-----7---8-----6b^^--|
|-000---000---000---000---000-----|-000---000---000---0---000-------|
  ...   ...   ...   ...   ...       ...   ...   ...   .   ...



 RIFF 6 VERSE x4

 RIFF 7 CHORUS x1


 RIFF 8A POSTCHORUS x1

|x3
|-----------------------------------------------------------------|
|-----------------------------------------------------------------|
|-----------------------------------------------------------------|
|-----3---4---3-------6---7---6-------3---4---3-------------------|
|-----1---2---1-------4---5---4-------1---2---1-------------2-1---|
|-0-0---0---0---0-0-0---0---0---0-0-0---0---0---0-3-2-0-2-3-----2-|
  . .   .   .   . . .   .   .   . . .   .   .   . . . . . . . . .

|x1
|-----------------------------------------------------------------|
|-----------------------------------------------------------------|
|-----------------------------------------------------------------|
|-----3---4---3-------6---7---6-------3---4---3-------------------|
|-----1---2---1-------4---5---4-------1---2---1---5-5-------------|
|-0-0---0---0---0-0-0---0---0---0-0-0---0---0---0-3-3-------------|
  . .   .   .   . . .   .   .   . . .   .   .   .    x

3. At Dawn They Sleep
Tuning Eb


 RIFF 1 INTRO x2

|KING
|-----------------------------------------|
|-----------------------------------------|
|---------8-7-----------------------------|
|-------9-------------8-7-----------------|
|-------------------9-------------7-6-----|
|-0-0-0-------0-0-0-------0-0-0-8-----7-6-|
| . . .       . . .       . . . .
|
|HANNEMAN
|-----------------------------------------|
|-----------------------------------------|
|---------5-4-----------------------------|
|-------6-------------5-4-----------------|
|-------------------6-------------4-3-----|
|-0-0-0-------0-0-0-------0-0-0-5-----4-3-|
  . . .       . . .       . . . .



 RIFF 1A INTRO x4

|KING
|-----------------------------------------|
|-----------------------------------------|
|---------8-7-----------------------------|
|-------9-------------8-7-----------------|
|-------------------9-------------7-6-----|
|-0-0-0-------0-0-0-------0-0-0-8-----7-6-|
| . . .       . . .       . . . .
|
|HANNEMAN
|-----------------------------------------|
|-----------------------------------------|
|---------5-4-----------------------------|
|-------6-------------5-4---------7-6-----|
|-------------------6-----------8-----7-6-|
|-0-0-0-------0-0-0-------0-0-0-----------|
  . . .       . . .       . . . .



 FILL 1

|----------|
|----------|
|----------|
|----------|
|-2--------|
|-0--------|
   x



 RIFF 2 VERSE x6

|-------------------------------------------------------------------|
|-------------------------------------------------------------------|
|-------------------------------------------------------------------|
|--------10-9-8--------------------------10-9-8---121110------------|
|---------8-7-6----------1110-9-----------8-7-6---10-9-8---121110---|
|-0-0-0-0---------0-0-0-0-9-8-7---0-0-0-0------------------10-9-8---|
  . . . .         . . . .         . . . .



 RIFF 3 CHORUS x2

|---------------------------------|---------------------------------|
|---------------------------------|---------------------------------|
|---------------------------------|---------------------------------|
|---------------------------------|---------------------------------|
|-4---------3-2---4-------5---5---|-4---------3-2---4-------5---7---|
|-2-2-2-2-4-----3-2-2-2-2-3---3---|-2-2-2-2-4-----3-2-2-2-2-3---5---|
  . . . . . . . . . . . .           . . . . . . . . . . . .


|---------------------------------|---------------------------------|
|---------------------------------|---------------------------------|
|---------------------------------|---------------------------------|
|---------------------------------|---------------------------------|
|-4---------3-2---4-------5---5---|-4---------3-2---7-------5-------|
|-2-2-2-2-4-----3-2-2-2-2-3---3---|-2-2-2-2-4-----3-5-------3-------|
  . . . . . . . . . . . .           . . . . . . . .



 RIFF 2 VERSE x6

 RIFF 3 CHORUS x2


 SOLO 1 KING
  N.H. BAR   N.H. BAR
|------------------------|-------------------------------------------------|
|-17\\////\\-------------|-6-3h5-6-3h5-6-3h5-6-3h5-8-5h6-8-5h6-8-5h6-8-5h6-|
|------------6//\/\/\\\--|-------------------------------------------------|
|------------------------|-------------------------------------------------|
|------------------------|-------------------------------------------------|
|------------------------|-------------------------------------------------|


|-----------------------------------------------------------|
|-9-6h8-9-6h8-9-6h8-9-6h8-11-8h9-11-8h9-11-8h9-11-8h9-------|
|-----------------------------------------------------------|
|-----------------------------------------------------x\\\\-|
|-----------------------------------------------------x\\\\-|
|-----------------------------------------------------------|


|----------------------------------------------|
|----------------------------------------------|
|-10-7h9-10-7h9-10-7h9-12-9h10-12-9h10-12-9h10-|
|----------------------------------------------|
|----------------------------------------------|
|----------------------------------------------|
   T      T      T      T       T       T

|-------------------------------------------------------|
|-------------------------------------------------------|
|-13-10h12-13-10h12-13-10h12-15-12h13-15-12h13-15-12h13-|
|-------------------------------------------------------|
|-------------------------------------------------------|
|-------------------------------------------------------|
   T        T        T        T        T        T
                                      A.H.
|----------------------------------------------|
|----------15-17-18----------15-17-18----------|
|-15-16-18----------15-16-18----------16b^^----|
|----------------------------------------------|
|----------------------------------------------|
|----------------------------------------------|


|-12-15-12-15-13-16-13-16-14-17-14-17-15-18-15-18-16-19-16-19-17-20-17-20-|
|-------------------------------------------------------------------------|
|-------------------------------------------------------------------------|
|-------------------------------------------------------------------------|
|-------------------------------------------------------------------------|
|-------------------------------------------------------------------------|

           BAR BAR/\/\/\/\/\
|-21b^^^---------------------|
|----------------------------|
|---------0\\\\h3h4p3p0h4p0--|
|----------------------------|
|----------------------------|
|----------------------------|

     BAR      BAR      BAR      BAR
|-------------------------------------/19b^^--22-19-22-19-22-19----------|
|------------------------------------------------------------------------|
|-/15/\/\--/13/\/\--/15/\/\--/13/\/\-------------------------------------|
|------------------------------------------------------------------------|
|---------------------------------------------------------------x\\\\----|
|---------------------------------------------------------------x\\\\----|
                                               T     T     T


 RIFF 2 x4 UNDER SOLO 1



 SOLO 2 HANNEMAN

|----13--------------------------------|
|-13----12--12h13p12h13p12h13p12h13p12-|
|--------------------------------------|
|--------------------------------------|
|--------------------------------------|
|--------------------------------------|


|-------------------------------------------------------------|
|-13-15-16-15-13-12-13-15-13-12-10-13-12-10-------------------|
|-------------------------------------------13-11-10-13-11-10-|
|-------------------------------------------------------------|
|-------------------------------------------------------------|
|-------------------------------------------------------------|


|-------------------------------------------------|
|-------------------------------------------------|
|-------------------------------------------------|
|-12-10-9-12-10-9-------------9-10-12--13b^^^^----|
|-----------------11-9-8-9-11---------------------|
|-------------------------------------------------|


|---------------------------------------------------------|
|---------------------------------------------------------|
|---------------------------------------------------------|
|-9-10-12-10-9--------------------------------------------|
|--------------11-9-8-11-9-8---------------/12b^^--/9b^^--|
|----------------------------10-8-7-10-8-7----------------|


|-----------------------------------------------------------------|
|-----------------------------------------------------------------|
|-----------------------------------------------------------------|
|-------------------------------9-10-12-9-10-12-10-12-13-10-12-13-|
|-8-9-11-8-9-11-9-11-12-9-11-12-----------------------------------|
|-----------------------------------------------------------------|


|------------------------------------------------------------|
|------------------------------------------------------------|
|-------------------------------------17-16-17-16fb^r-16b^^--|
|-12--13--15--13--15--16--15--16--18-------------------------|
|------------------------------------------------------------|
|------------------------------------------------------------|


|-------------------------------------------------------------------------|
|-------------------------------------------------------------------------|
|-14-11h13-14-11h13-14-11h13-14-11h13-14-11h13-14-11h13-14-11h13-14-11h13-|
|-------------------------------------------------------------------------|
|-------------------------------------------------------------------------|
|-------------------------------------------------------------------------|
   T        T        T        T        T        T        T        T

|-------------------------------------------------------------------------|
|-15-12h13-15-12h13-15-12h13-15-12h13-15-12h13-15-12h13-15-12h13-15-12h13-|
|-------------------------------------------------------------------------|
|-------------------------------------------------------------------------|
|-------------------------------------------------------------------------|
|-------------------------------------------------------------------------|
   T        T        T        T        T        T        T        T

|-16-13h14-16-13h14-17-14h16-17-14h16-19-16h17-19-16h17-20-17h19-20-17h19-|
|-------------------------------------------------------------------------|
|-------------------------------------------------------------------------|
|-------------------------------------------------------------------------|
|-------------------------------------------------------------------------|
|-------------------------------------------------------------------------|
   T        T        T        T        T        T        T        T

|-22-19h20-22-19h20-23-20h22-23-20h22-23b\\--------|
|--------------------------------------------------|
|--------------------------------------------------|
|-------------------------------------------x\\----|
|-------------------------------------------x\\----|
|--------------------------------------------------|
   T        T        T        T


 RIFF 3A x4 UNDER SOLO 2

|---------------------------------|---------------------------------|
|---------------------------------|---------------------------------|
|---------------------------------|---------------------------------|
|---------------------------------|---------------------------------|
|-4---------3-2---4---------------|-4---------3-2---7-------5-------|
|-2-2-2-2-4-----3-2-2-2-2-2-2-2-2-|-2-2-2-2-4-----3-5-------3-------|
  . . . . . . . . . . . . . . . .   . . . . . . . .



 RIFF 1A BREAK x4


 FILL 2

|KING
|---------------------------------------------------------------------------
|-------------------------------------------------------------7-------------
|---------8-7---------------------------------------------5-7---7-6b^^^^----
|-------9-------------8-7----------------------7-6----6-7-------------------
|-------------------9-------------7-6----6-7-8-----7------------------------
|-0-0-0-------0-0-0-------0-0-0-8-----7-------------------------------------
 . . .       . . .       . . . .

|HANNEMAN
|-------------------------------------------------------------6-------------
|---------------------------------------------------------6-8---8-7b^^^^----
|---------5-4----------------------------------7-6----6-7-------------------
|-------6-------------5-4---------7-6----6-7-8-----7------------------------
|-------------------6-----------8-----7-------------------------------------
|-0-0-0-------0-0-0-------0-0-0---------------------------------------------
  . . .       . . .       . . . .



 RIFF 4 INTERLUDE x3

|KING
|-----------------|---------------|---------------|------------------|
|-----------------|---------------|---------------|------------------|
|-----------------|---------------|---------------|------------------|
|-----------------|---------------|---------------|-------1--------4-|
|-2-------3-----5-|-------3-----5-|-------3-----5-|---3-2------6-5---|
|-0-0-0-0-1-0-0-3-|-0-0-0-1-0-0-3-|-0-0-0-1-0-0-3-|-1--------4-------|
|   . . .   . .     . . .   . .     . . .   . . .   .        .
|
|HANNEMAN
|-----------------|---------------|---------------|------------------|
|-----------------|---------------|---------------|------------------|
|-----------------|---------------|---------------|----------------6-|
|-----------------|---------------|---------------|-------6----8-7---|
|-2-------3-----5-|-------3-----5-|-------3-----5-|---8-7----6-------|
|-0-0-0-0-1-0-0-3-|-0-0-0-1-0-0-3-|-0-0-0-1-0-0-3-|-6----------------|
    . . .   . .     . . .   . .     . . .   . . .   .        .


|KING
|-----------------|---------------|---------------|------------------|
|-----------------|---------------|---------------|------------------|
|-----------------|---------------|---------------|------------------|
|-----------------|---------------|---------------|-------1----------|
|-2-------3-----5-|-------3-----5-|-------3-----5-|---3-2------6-5---|
|-0-0-0-0-1-0-0-3-|-0-0-0-1-0-0-3-|-0-0-0-1-0-0-3-|-1--------4-----6-|
|   . . .   . .     . . .   . .     . . .   . . .   .        .
|
|HANNEMAN
|-----------------|---------------|---------------|------------------|
|-----------------|---------------|---------------|------------------|
|-----------------|---------------|---------------|------------------|
|-----------------|---------------|---------------|--------6---6-5---|
|-2-------3-----5-|-------3-----5-|-------3-----5-|---8-7----4-----6-|
|-0-0-0-0-1-0-0-3-|-0-0-0-1-0-0-3-|-0-0-0-1-0-0-3-|-6----------------|
    . . .   . .     . . .   . .     . . .   . . .   .        .



 FILL 3

|KING
|-----------------|---------------|---------------|------------------|
|-----------------|---------------|---------------|------------------|
|-----------------|---------------|---------------|------------------|
|-----------------|---------------|---------------|-------1--------4-|
|-2-------3-----5-|-------3-----5-|-------3-----5-|---3-2------6-5---|
|-0-0-0-0-1-0-0-3-|-0-0-0-1-0-0-3-|-0-0-0-1-0-0-3-|-1--------4-------|
|   . . .   . .     . . .   . .     . . .   . . .   .        .
|
|HANNEMAN
|-----------------|---------------|---------------|------------------|
|-----------------|---------------|---------------|------------------|
|-----------------|---------------|---------------|----------------6-|
|-----------------|---------------|---------------|-------6----8-7---|
|-2-------3-----5-|-------3-----5-|-------3-----5-|---8-7----6-------|
|-0-0-0-0-1-0-0-3-|-0-0-0-1-0-0-3-|-0-0-0-1-0-0-3-|-6----------------|
    . . .   . .     . . .   . .     . . .   . . .   .        .


|BOTH
|-----------------|---------------|---------------|------------------|
|-----------------|---------------|---------------|------------------|
|-----------------|---------------|---------------|------------------|
|-----------------|---------------|---------------|------------------|
|-2-------3-----5-|-------3-----5-|-------3-----5-|-3--------6-------|
|-0-0-0-0-1-0-0-3-|-0-0-0-1-0-0-3-|-0-0-0-1-0-0-3-|-1--------4-------|
    . . .   . .     . . .   . .     . . .   . . .



 RIFF 5 INTERLUDE x2

|--------------------------------------------------------------------|
|--------------------------------------------------------------------|
|--------------------------------------------------------------------|
|-9-------9----10-9-------9----10-9-------9----10-9-------9----10----|
|-7-------7-----8-7-------7-----8-7-------7-----8-7-------7-----8----|
|---0-0-0---0-0-----0-0-0---0-0-----0-0-0---0-0-----0-0-0------------|
    . . .   . .     . . .   . .     . . .   . .     . . .



 RIFF 6 INTERLUDE x3

|KING
|---------------------------------------------------------------------------
|---------------------------------------------------------------------------
|---------------------------------------------------------------------------
|------------------7---------------7--8------------------7------------------
|---7--8---7--8-10-----7--8---7--8--------7--8---7--8-10-----7--8---7--8----
|-0------0-----------0------0-----------0------0-----------0------0------10-|
| .      .           .      .           .      .           .      .
|
|HANNEMAN
|---------------------------------------------------------------------------
|---------------------------------------------------------------------------
|------------------9---------------9-10------------------9------------------
|---9-10---9-10-11-----9-10---9-10--------9-10---9-10-11-----9-10---9-10----
|----------------------------------------------------------------------1011|
|-0------0-----------0------0-----------0------0-----------0------0---------
  .      .           .      .           .      .           .      .



 RIFF 7 BRIDGE x8

|-----------------|
|-----------------|
|-----------------|
|-----9------10---|
|-7-7-7---8-8-8---|
|-----------------|
  . .     . .



 RIFF 7A x4

|-----------------|
|-----------------|
|-----------------|
|-----------------|
|-2-2-2---3-3-3---|
|-0-0-0---1-1-1---|




 RIFF 7B x4

|-----------------|
|-----------------|
|-----------------|
|-----------------|
|-----------------|
|-0000000-1111111-|
  ....... .......



 RIFF 8A BREAK x1

|KING
|-----------------|-----------------|-----------------|-----------------|
|-----------------|-----------------|-----------------|-----------------|
|-----------------|-----------------|-----------------|-----------------|
|-----------------|-----------------|-----------------|-----------------|
|-4---------------|-----------------|-----------------|-----4-----3-----|
|-2---------------|-----------------|-----------------|-----2-----1-----|
|  x
|
|HANNEMAN
|-----------------|-----------------|-----------------|-----------------|
|-----------------|-----------------|-----------------|-----------------|
|-----------------|-----------------|-----------------|-----------------|
|-----------------|-----------------|-----------------|-----------------|
|-----------------|-----------------|-----------------|-----4-----3-----|
|-220-2-3-2-0-2-0-|-220-2-3-2-0-2-0-|-220-2-3-2-0-2-0-|-2-0-2-----1-----|
  ... . . . . . .   ... . . . . . .   ... . . . . . .   . .



 RIFF 8 BREAK x4

|-----------------|-----------------|-----------------|-----------------|
|-----------------|-----------------|-----------------|-----------------|
|-----------------|-----------------|-----------------|-----------------|
|-----------------|-----------------|-----------------|-----------------|
|-----------------|-----------------|-----------------|-----4-----3-----|
|-220-2-3-2-0-2-0-|-220-2-3-2-0-2-0-|-220-2-3-2-0-2-0-|-2-0-2-----1-----|
  ... . . . . . .   ... . . . . . .   ... . . . . . .   . .



 RIFF 9 VERSE x4

|----------------|----------------|---------------------------------|
|----------------|----------------|---------------------------------|
|----------------|----------------|---------------------------------|
|-9-9-9-9-9-12\9-|-9-9-9-9-9-12\9-|-9-9-9-9-9-10--8-7-----7-6---6-5-|
|-7-7-7-7-7-10\7-|-7-7-7-7-7-10\7-|-7-7-7-7-7--8--6-5-7-6-5-4-6-4-3-|
|----------------|----------------|-------------------5-4-----4-----|




 SOLO 3 HANNEMAN
   BAR  BAR/\/\/\/\/\/\/\/\/\/\/\/\/\/\/\/\/\/\/\/\/\/\/\/\/\/\
|---------------------------------------------------------------|
|---------------------------------------------------------------|
|-0\\\\h3h4p3p0h4p3p0h4p3p0h6p4p0h6p4p0h6p4p0h7p6p0h7p6p0h7p6p0-|
|---------------------------------------------------------------|
|---------------------------------------------------------------|
|---------------------------------------------------------------|

  BAR/\/\/\/\/\/\/\/\/\/\/\/\/\/\/\/\/\/\/\/\/\/\/\/\/\/\\
|-----------------------------------------------------------------|
|-----------------------------------------------------------------|
|-0h9p7p0h9p7p0h9p7p0h10p9p0h10p9p0h10p9p0h12p10p0h12p10p0--------|
|----------------------------------------------------------x\\\\--|
|----------------------------------------------------------x\\\\--|
|-----------------------------------------------------------------|


|-------------------------------------------------------------------------|
|-------------------------------------------------------------------------|
|-------------------------------------19-20-22-19-20-22-19-20-22-19-20-22-|
|-18-19-21-18-19-21-18-19-21-18-19-21-------------------------------------|
|-------------------------------------------------------------------------|
|-------------------------------------------------------------------------|


|------------------------------------------------------------------|
|-18-19-21-19-18\16------------------------------------------------|
|-------------------19-17-16-19-17-16------------------------------|
|-------------------------------------18-16-15-18-16-15------------|
|-------------------------------------------------------17-15-14b\-|
|------------------------------------------------------------------|


|-----13b^-----14b^-----15b^-----16b^-----17b^-----18b^-----19b^------20b^-|
|-16b^16b^-17b^17b^-18b^18b^-19b^19b^-20b^20b^-21b^21b^-22b^22b^-23b^-23b^-|
|--------------------------------------------------------------------------|
|--------------------------------------------------------------------------|
|--------------------------------------------------------------------------|
|--------------------------------------------------------------------------|


|-------22fb^^r--22b^^---19-20-22-20-19-------22-20-19-------22-20-19-|
|-24b^----------------------------------22-21----------22-21----------|
|---------------------------------------------------------------------|
|---------------------------------------------------------------------|
|---------------------------------------------------------------------|
|---------------------------------------------------------------------|


|----------------------------------------------------------16fb^^r----------
|-22-21-19-21-22-21-19-------22-21-19-------22-21-19-------19fb^^r-19b^\\\\-
|----------------------22-20----------22-20----------22-20------------------
|---------------------------------------------------------------------------
|---------------------------------------------------------------------------
|---------------------------------------------------------------------------




 RIFF 8B x4 UNDER SOLO 3

|-----------------|-----------------|-----------------|-----------------|
|-----------------|-----------------|-----------------|-----------------|
|-----------------|-----------------|-----------------|-----------------|
|-----------------|-----------------|-----------------|-8-7---7-6---6-5-|
|-----------------|-----------------|-----------------|-6-5-7-5-4-6-4-3-|
|-220-2-3-2-0-2-0-|-220-2-3-2-0-2-0-|-220-2-3-2-0-2-0-|-----5-----4-----|
  ... . . . . . .   ... . . . . . .   ... . . . . . .



 RIFF 8B OUTRO x2


 RIFF 8C OUTRO x3

|-----------------|-----------------|
|-----------------|-----------------|
|-----------------|-----------------|
|-----------------|-8-7---7-6---6-5-|
|-----------------|-6-5-7-5-4-6-4-3-|
|-220-2-3-2-0-2-0-|-----5-----4-----|
  ... . . . . . .



 FILL 4

|-----------------|
|-----------------|
|-----------------|
|-8-7---7-6---6-5-|
|-6-5-7-5-4-6-4-3-|
|-----5-----4-----|
                 x



 RIFF 2 OUTRO x1


 RIFF 2A END x1

|-------------------------------------------------------------------|
|-------------------------------------------------------------------|
|-------------------------------------------------------------------|
|--------10-9-8--------------------------10-9-8---121110------------|
|---------8-7-6----------1110-9-----------8-7-6---10-9-8---121110---|
|-0-0-0-0---------0-0-0-0-9-8-7---0-0-0-0------------------10-9-8---|
  . . . .         . . . .         . . . .                        x

4. Praise of Death
 Tuning Eb


 RIFF 1 INTRO x4

|-----------------------------------------------------|
|-----------------------------------------------------|
|-----------------------------------------------------|
|-------------------------------------------------7-6-|
|-6----------6----------6------6------6-------5-4-----|
|---33333333---33333333---3333---3333---0-5-6---------|
    ........   ........   ....   ....   . . . . .



 FILL 1

|-----------------------------|
|-----------------------------|
|-----------------------------|
|-----6-5-----5-4-----4-3-----|
|-8-7-----7-6-----6-5-----5-4-|
|-----------------------------|




 RIFF 2 VERSE x4

|-----------------------------------------------------|
|-----------------------------------------------------|
|-----------------------------------------------------|
|--------3----------5----------6----------------------|
|-2------1----------3----------4------------------7\6-|
|-000000---00000000---00000000---0000000000000000-5\4-|
  ......   ........   ........   ................



 RIFF 3 CHORUS x1

|------------------------|------------------------|
|------------------------|------------------------|
|------------------------|------------------------|
|------------------------|------------------------|
|-6----------------3-2---|-6----------------3-2---|
|-4444444444444444-----2-|-4444444444444444-----2-|
  ................         ................


|------------------------|------------------------|
|------------------------|------------------------|
|------------------------|------------------------|
|------------------------|------------------------|
|-6----------------3-2---|-6----------3-2---3-2---|
|-4444444444444444-----2-|-4444444444-----3-----3-|
  ................         ..........



 RIFF 1 MAIN x4

 RIFF 2 VERSE x4

 RIFF 3 CHORUS x1


 FILL 2 x4

|KING
|-------------------------|
|-------------------------|
|-------------------------|
|-------------3-2---5-4---|
|---2h3p2p0-------2-----4-|
|-2---------2-------------|
| .         .
|
|HANNEMAN
|-------------------------|
|-------------------------|
|-------------3-2---5-4---|
|---2h3p2p0-------2-----4-|
|-2---------2-------------|
|-------------------------|
  .         .



 FILL 3

|----------|
|----------|
|----------|
|----------|
|-4--------|
|-2--------|



 SOLO 1 KING

|-21fb^^21^^21^^21^21^^--17-18-20-18-17-------------------------------------
|---------------------------------------20-19-17-20-19-17-------------------
|---------------------------------------------------------20-18-17-20-18-17-
|---------------------------------------------------------------------------
|---------------------------------------------------------------------------
|---------------------------------------------------------------------------


|-------------------------------------------------------------------|
|----------------------------------17-19-20-19-17-------------------|
|----------------17-18-20-17-18-20----------------20-18-17-20-18-17-|
|-19-17-16-17-19----------------------------------------------------|
|-------------------------------------------------------------------|
|-------------------------------------------------------------------|

                                               N.H. BAR
|--------------------------------------------------------|
|--------------------------------------------------------|
|----------------------------------------------18\\\\----|
|-19-17-16-19-17-16--------------------------------------|
|-------------------18-16-15-18-16-15--------------------|
|-------------------------------------17-15-14-----------|




 RIFF 4 x2 UNDER SOLO 1

|------------------------|------------------------|
|------------------------|------------------------|
|------------------------|------------------------|
|------------------------|----------------------2-|
|-7----------------3-2---|-7----------------2-3---|
|-5555555555555555-----2-|-5555555555555555-------|
  ................         ................



 RIFF 6 BREAK x4

|-------------------------|-------------------------|
|-------------------------|-------------------------|
|-------------------------|-------------------------|
|-------------------------|-------------------------|
|-----2-----3-----5-----3-|-----2-----3-----5-----6-|
|-000-0-000-1-000-3-000-1-|-000-0-000-1-000-3-000-4-|
  ...   ...   ...   ...     ...   ...   ...   ...



 FILL 4

|--------|
|--------|
|--------|
|--------|
|-----2--|
|-000-0--|
  ...  x



 BASS FILL


 SOLO 2 KING

|-----------|----19-22-19----19-22-19----19-22-19----19-22-19----19-22-19-|
|-20fb^^----|-21----------21----------21----------21----------21----------|
|-22fb^^----|-------------------------------------------------------------|
|-----------|-------------------------------------------------------------|
|-----------|-------------------------------------------------------------|
|-----------|-------------------------------------------------------------|


|----19-22-19----19-22-19----19-22-19-------------|
|-21----------21----------21----------21b^^-21b^^-|
|-------------------------------------------------|
|-------------------------------------------------|
|-------------------------------------------------|
|-------------------------------------------------|


|-19-19-21-24-19-19-21-24-19-19-21-24-19-19-21-24-19-19-21-24-19-|
|----------------------------------------------------------------|
|----------------------------------------------------------------|
|----------------------------------------------------------------|
|----------------------------------------------------------------|
|----------------------------------------------------------------|


|-19-21-24-19-19-21-24-22-21-22-21-19-21-19-18-21-19-18-|
|-------------------------------------------------------|
|-------------------------------------------------------|
|-------------------------------------------------------|
|-------------------------------------------------------|
|-------------------------------------------------------|

                                                            BAR
|---------------------------------------------------------19b////----|
|-21-20-18-21-20-18-------------------------18-20b^^^^----20b////----|
|-------------------21-19-18-21-19-18-19-21--------------------------|
|--------------------------------------------------------------------|
|--------------------------------------------------------------------|
|--------------------------------------------------------------------|




 RIFF 7 x4 UNDER SOLO 2

|-----------------------------|
|-----------------------------|
|-----------------------------|
|-----------------------------|
|-----------------------------|
|-000000-555555-444444-333333-|
  ...... ...... ...... ......



 FILL 4A

|--------|
|--------|
|--------|
|--------|
|-----2--|
|-000-0--|
  ...



 SOLO 3 HANNEMAN

|-19b^^-19b^^--22b^^--22b^^--|----------------------------------|
|-21b^^-21b^^----------------|----------12-14-15-14-12-15-14-12-|
|----------------------------|-12-13-15-------------------------|
|----------------------------|----------------------------------|
|----------------------------|----------------------------------|
|----------------------------|----------------------------------|

                                             BAR
|----------------------------------------------------|
|----------------------------------------------------|
|-15-13-12-15-13-12----------------12-13b^^p0\\\\----|
|-------------------14-12-11-12-14-------------------|
|----------------------------------------------------|
|----------------------------------------------------|


|-------14-17-------14-17-------14-17-------14-17-------14-17-------14-17-|
|-14-17-------14-17-------14-17-------14-17-------14-17-------14-17-------|
|-------------------------------------------------------------------------|
|-------------------------------------------------------------------------|
|-------------------------------------------------------------------------|
|-------------------------------------------------------------------------|

                   N.H. BAR
|-----------------------------------|
|-1515151515151515------------------|
|------------------12\\\/\/\/\\\----|
|-----------------------------------|
|-----------------------------------|
|-----------------------------------|


|--------22b^^------------------------------------------------------|
|-------------------------------------------------------------------|
|---------------12//\/\\--13//\/\\--15//\/\\--16/\\\/\--18\\/\/\/\\-|
|-x\\\\-------------------------------------------------------------|
|-x\\\\-------------------------------------------------------------|
|-------------------------------------------------------------------|


|-23232323-19-21-23232323-|-19-21-22-21-19--------------------|
|-------------------------|----------------21-20-18-20-21b^^--|
|-------------------------|-----------------------------------|
|-------------------------|-----------------------------------|
|-------------------------|-----------------------------------|
|-------------------------|-----------------------------------|

   BAR\\\/\/\/\/\/\/\/\/\/\/\/\/\/\/\/\/\
|----------------------------------------|
|-18h21p18h21p18h21p18h21p18h21p18h21p18-|
|----------------------------------------|
|----------------------------------------|
|----------------------------------------|
|----------------------------------------|

  BAR/\/\/\/\/\/\/\/\/\/\/\/\/\/\/\/\/\/\/\/\/\/\/\/\/\/\/\/\/\/\
|-----------------------------------------------------------------|
|-----------------------------------------------------------------|
|-18p16p0h19p16p0h18p16p0h19p16p0h18p16p0h19p16p0h18p16p0h19p16p0-|
|-----------------------------------------------------------------|
|-----------------------------------------------------------------|
|-----------------------------------------------------------------|

    BAR        BAR///\///\///\///\\\/\\\/\\\/\\\////\///\///\///\
|-------------|---------------------------------------------------|
|-23//\\\\----|---------------------------------------------------|
|-------------|-0h6p4p3p0h6p4p3p0h6p4p3p0h6p4p3p0h6p4p3p0h6p4p3p0-|
|-------------|---------------------------------------------------|
|-------------|---------------------------------------------------|
|-------------|---------------------------------------------------|

  BAR\/\\\/\\\/\\\////\///\///\///\\\/\\\/\\\/\\\/\
|---------------------------------------------------|
|---------------------------------------------------|
|-0h6p4p3p0h6p4p3p0h6p4p3p0h6p4p3p0h6p4p3p0h6p4p3p0-|
|---------------------------------------------------|
|---------------------------------------------------|
|---------------------------------------------------|

                           BAR
|----------------------------------|
|----------------------------------|
|----------------------------------|
|-5-3-2-5-3-2----------------------|
|-------------4-2-1-4-2-1----------|
|-------------------------0\\\\----|




 RIFF 8 x6 UNDER SOLO 3

|-----------------------------------|-----------------------------------|
|-----------------------------------|-----------------------------------|
|-----------------------------------|-----------------------------------|
|-----------------------------------|--------------------------------6--|
|-2------------5------4------5------|-2------------5-----4-----5-----4--|
|-000000000000-3-0000-2-0000-3-0000-|-000000000000-3-000-2-000-3-000----|
  ............   ....   ....   ....   ............   ...   ...   ...



 RIFF 9 BRIDGE x2

|--------------------------------|--------------------------------|
|--------------------------------|--------------------------------|
|--------------------------------|--------------------------------|
|-3/4----------------------------|-3/4----------------------5/6---|
|-1/2-----2------2------2--------|-1/2-----2------2------2--3/4---|
|-----0-0-0--0-0-0--0-0-0--0-0-0-|-----0-0-0--0-0-0--0-0-0------0-|
      . .    . .    . .    . . .       . .    . .    . .        .


|--------------------------------|--------------------------------|
|--------------------------------|--------------------------------|
|--------------------------------|--------------------------------|
|-3/4----------------------------|--------------------------------|
|-1/2-----2------2------2--------|-7\6-----2------2------2--------|
|-----0-0-0--0-0-0--0-0-0--0-0-0-|-5\4-0-0-0--0-0-0--0-0-0--0-0-0-|
      . .    . .    . .    . . .       . .    . .    . .    . . .



 RIFF 9A x2

|-----------------------------------------------------------------------|
|-----------------------------------------------------------------------|
|-----------------------------------------------------------------------|
|-3/4--------------6/7--------------9/10--------------------------------|
|-1/2-----2--------4/5-----2--------7//8-----2--------7\6-----5\4-------|
|-----0-0-0--0-0-0-----0-0-0--0-0-0------0-0-0--0-0-0-5\4-0-0-3\2-0-0-0-|
      . .    . . .     . .    . . .      . .    . . .     . .     . . .



 SOLO 4 KING

|-------------------------------------------------------|
|-------------------------------------------------------|
|-------------------------------------------------------|
|-------------------------------------12-13-14-12-13-14-|
|-------------------12-13-14-12-13-14-------------------|
|-12-14-15-12-14-15-------------------------------------|


|-------------------------------------12-14-15-14-12-|
|-------------------12-13-15-12-13-15----------------|
|-12-13-14-12-13-14----------------------------------|
|----------------------------------------------------|
|----------------------------------------------------|
|----------------------------------------------------|


|------------------------------------------------------------------|
|-15-13-12-15-13-12--------------------15b^^--15b^^--15b^^--15b^^--|
|-------------------14-13-12-14-13-12--14b^^--14b^^--14b^^--14b^^--|
|------------------------------------------------------------------|
|------------------------------------------------------------------|
|------------------------------------------------------------------|


|---------------------------------------------|
|---------------------------------------------|
|-12h14-11b^^--11-12-14-12-11-----------------|
|-----------------------------14-12-11-12b^^--|
|---------------------------------------------|
|---------------------------------------------|


|-----------------------------------------------------------|
|-------6-8-9-8-6-------------------------------------------|
|-6-7-9-----------9-7-6-9-7-6-------------------------------|
|-----------------------------8-6-5-8-6-5-------------------|
|-----------------------------------------7-5-4-7-5-4-------|
|-----------------------------------------------------6-4-3-|


|----------------------------------------------------------|
|-15fb^^r15-12-15-12--------------17fb^^^^r--17b^^--/19\\--|
|--------------------14b^^--14b^^--------------------------|
|----------------------------------------------------------|
|----------------------------------------------------------|
|----------------------------------------------------------|


|-14-16-17---------------------------------------------------------|
|----------17b^^--14h17p14--------14-17-15-14----------------------|
|--------------------------16b^^--------------17-16-14-------------|
|------------------------------------------------------17-16-14b\\-|
|------------------------------------------------------------------|
|------------------------------------------------------------------|




 SOLO 5 HANNEMAN

|----19-16----19-16----19-16----19-16----19-16----19-16----|
|-19-------19-------19-------19-------19-------19-------19-|
|----------------------------------------------------------|
|----------------------------------------------------------|
|----------------------------------------------------------|
|----------------------------------------------------------|


|-19-16----19-16----19-16----19-16----19-16----19-16----|
|-------19-------19-------19-------19-------19-------19-|
|-------------------------------------------------------|
|-------------------------------------------------------|
|-------------------------------------------------------|
|-------------------------------------------------------|


|-19fb^^r--19b^^--16h19p16------------------------------|
|--------------------------19b^^--16h19p16--------------|
|------------------------------------------18--18fb^^r--|
|-------------------------------------------------------|
|-------------------------------------------------------|
|-------------------------------------------------------|
                                             x



 SOLO 6 KING

|-------------------------------------------------------------------|
|-------------------------------------------------------------------|
|-14-16-17-16-14----------------------------------------------------|
|----------------17-16-14-17-16-14----------------------------------|
|----------------------------------17-15-14-17-15-14----------------|
|----------------------------------------------------17-15-14-15-17-|


|-------------------------------------------------------|
|-------------------------------------------------------|
|-------------------------------------14-16-17///\\\\\\-|
|-------------------14-16-17-14-16-17-------------------|
|-14-15-17-14-15-17-------------------------------------|
|-------------------------------------------------------|




 RIFF 10 x4 UNDER SOLOS 4, 5 & 6

|-----------------|-----------------|-----------------|
|-----------------|-----------------|-----------------|
|-----------------|-----------------|-----------------|
|-----------------|-----------------|-----------------|
|-2h4-----5\4-----|-2h4-----5\4-----|-2h4-----5\4-----|
|-0h2-222-3\2-222-|-0h2-222-3\2-222-|-0h2-222-3\2-222-|
      ...     ...       ...     ...       ...     ...


|-----------------|-------------------------|
|-----------------|-------------------------|
|-----------------|-------------------------|
|-----------------|-3-----3-----3-----3-----|
|-2h4-----5\4-----|-1-----1-----1-----1-----|
|-0h2-222-3\2-222-|---000---000---000---000-|
      ...     ...     ...   ...   ...   ...



 FILL 4B

|----------|
|----------|
|----------|
|----------|
|-2--------|
|-0--------|




 SOLO 7 HANNEMAN (WITH HEAVY REVERB)
   BAR               N.H.  N.H. BAR         N.H. BAR
|---------------------------------------------------------------|
|---------------------------------------------------------------|
|---------------------------------------------------------------|
|-------------------------------------------3/\\\\/\\/\///\/\/\-|
|-0\\\\\\\\/\/\/\\\\h9////-10/\/\/\\/\\/\\----------------------|
|---------------------------------------------------------------|

  N.H. BAR N.H. BAR          N.H. BAR      N.H. BAR
|--------------------------------------------------------|
|--------------------------------------------------------|
|-------------------------------------------5\\////\\\\--|
|-10\\/\/\/\/\\/\/\\-------------------------------------|
|----------10\\/\/\\////\\/\\-12\\/\/\/\\\---------------|
|--------------------------------------------------------|

  N.H. BAR          N.H. BAR      N.H. BAR      N.H. BAR N.H. BAR
|-----------------------------------------------------------------|
|-----------------------------------------------------------------|
|-5\\\\/\/\\\\////------------------------------------------------|
|-5\\\\/\/\\\\////--3\\/\/\/\/\\--3\\\\/\/\/\\--3///\\\--3////\\\-|
|---------------------------------3\\\\/\/\/\\--------------------|
|-----------------------------------------------------------------|

  N.H. BAR  BAR      N.H. BAR N.H. BAR
|---------------------------------------------------|
|---------------------------------------------------|
|-----------------------------5\\\\///\///\///\///--|
|----------0\\\/\/\\h5\\\/\/\/\\\\\///\///\---------|
|-3\\/\/\\------------------------------------------|
|---------------------------------------------------|




 RIFF 1 MAIN x4

 RIFF 2 VERSE x4

 RIFF 3 CHORUS x1



 SOLO 8 KING

|-18-21-18----21-18----21-18----21-18----21-18----21-18-------|
|----------20-------20-------20-------20-------20-------20\\--|
|-------------------------------------------------------------|
|-------------------------------------------------------------|
|-------------------------------------------------------------|
|-------------------------------------------------------------|


|-212121212121-22b^^^--|
|----------------------|
|----------------------|
|----------------------|
|----------------------|
|----------------------|


|-18-19-21-19-18-------------------------------------------------------|
|----------------21-20-18-21-20-18-------------------------------------|
|----------------------------------21-19-18-21-19-18-------------------|
|----------------------------------------------------20-18-17-20-18-17-|
|----------------------------------------------------------------------|
|----------------------------------------------------------------------|

                                       BAR
|----------------------------------------------|
|----------------------------------------------|
|----------------------------------------------|
|----------------------------------------------|
|-19-17-16-19-17-16----------------------------|
|-------------------18-16-15-18-16-15-0\\\\----|




 RIFF 1 x2 UNDER SOLO 8


 FILL 1A END

|----------------------|
|----------------------|
|----------------------|
|-----6-5--------------|
|-8-7-----7-6-5\\\\----|
|-------------3\\\\----|


5. Necropheliac

 Tuning Eb


 RIFF 1 INTRO x1

|KING
|-------------------|-------------------|
|-------------------|-------------------|
|-------------------|-------------------|
|-4-3---------------|-1-0---------------|
|-----4-3--5-4------|-----1-0--2-1------|
|--------------5-4--|--------------2-1--|
|
|
|HANNEMAN
|-------------------|-------------------|
|-------------------|-------------------|
|-2-1---------------|-------------------|
|-----2-1--3-2------|-4-3---------------|
|--------------3-2--|-----4-3--5-4------|
|-------------------|--------------5-4--|




 RIFF 2A INTO VERSE x1

|KING
|---------------------------------------------------------|
|---------------------------------------------------------|
|---------------------------------------------------------|
|---------------------------------------------------------|
|-4-------------------------------------------------------|
|-2-------------------------------------------------------|
|  x
|
|HANNEMAN
|---------------------------------------------------------|
|---------------------------------------------------------|
|---------------------------------------------------------|
|---------------------------------------------------------|
|-4------4------5------5------2------2------4------4------|
|-2-2222---2222---2222---2222---2222---2222---2222---2222-|
    ....   ....   ....   ....   ....   ....   ....   ....


|KING
|---------------------------------------------------------|
|---------------------------------------------------------|
|---------------------------------------------------------|
|---------------------------------------------------------|
|-4-------------5-------------2-------------4------4------|
|-2-------------3-------------0-------------2------2------|
|  x             x             x             x      x
|
|HANNEMAN
|---------------------------------------------------------|
|---------------------------------------------------------|
|---------------------------------------------------------|
|---------------------------------------------------------|
|-4------4------5------5------2------2------4------4------|
|-2-2222---2222---2222---2222---2222---2222-2------2------|
    ....   ....   ....   ....   ....   ....  x      x



 RIFF 2 VERSE x2

|---------------------------------------------------------|
|---------------------------------------------------------|
|---------------------------------------------------------|
|---------------------------------------------------------|
|-4------4------5------5------2------2------4------4------|
|-2-2222---2222---2222---2222---2222---2222---2222---2222-|
    ....   ....   ....   ....   ....   ....   ....   ....



 RIFF 3 BRIDGE x1

|---------------------------------------------------------------|
|---------------------------------------------------------------|
|---------------------------------------------------------------|
|---------------------------------------------------------------|
|-2-----------------------------------------------333333-222222-|
|-0000000000000000-111111-555555-4444444444444444---------------|
  ................ ...... ...... ................ ...... ......


|---------------------------------------------------------------|
|---------------------------------------------------------------|
|---------------------------------------------------------------|
|---------------------------------------------------------------|
|-2------------------------------6------------------------------|
|-0000000000000000-111111-555555-4------------------------------|
  ................ ...... ......  x



 RIFF 2 VERSE x4


 RIFF 3A BRIDGE x1

|---------------------------------------------------------------|
|---------------------------------------------------------------|
|---------------------------------------------------------------|
|---------------------------------------------------------------|
|-2-----------------------------------------------333333-222222-|
|-0000000000000000-111111-555555-4444444444444444---------------|
  ................ ...... ...... ................ ...... ......


|---------------------------------------------------------------|
|---------------------------------------------------------------|
|---------------------------------------------------------------|
|-------------------------------------------------5------4------|
|-2------------------------------6----------------3------2------|
|-0000000000000000-111111-555555-4------------------------------|
  ................ ...... ......  x                x      x



 RIFF 2 VERSE x3


 RIFF 4 BRIDGE x1

|---------------------------------|---------------------------------|
|---------------------------------|---------------------------------|
|---------------------------------|---------------------------------|
|---------------------------------|---------------------------------|
|-6-------------------------------|---------------------------------|
|-4444444444444444444444444444444-|-1-1-1-1-1-1-1-1-1-1-1-1-1-1-1-1-|
  ...............................   . . . . . . . . . . . . . . . .



 RIFF 5 BREAK x4

|---------------------|---------------------|
|---------------------|---------------------|
|---------------------|---------------------|
|---------4-5-4b^^----|---------4-5---------|
|-------7-------------|-------7-----6b^^----|
|-0-000---------------|-0-000---------------|
  . ...                 . ...



 SOLO 1 KING
   BAR        BAR
|---------------------|-------------------------------18-19-21-19-18-|
|---------------------|----------18-20-21-20-18-20-21----------------|
|-0\\\\/\/\-----------|-18-19-21-------------------------------------|
|---------------------|----------------------------------------------|
|---------------------|----------------------------------------------|
|------------0\\\\----|----------------------------------------------|


|-22fb^^^r--22b^^--|----------18-16-----------15-18-16-19fb^^^r--19b^^----|
|------------------|-17-18-20-------17b^^--17-----------------------------|
|------------------|------------------------------------------------------|
|------------------|------------------------------------------------------|
|------------------|------------------------------------------------------|
|------------------|------------------------------------------------------|


|--------------------------------------------------------------------------|
|-15-14-12----------15-14-12----------15-14-12----------15-14-12-----------|
|----------15-13-12----------15-13-12----------15-13-12----------15-14-12--|
|--------------------------------------------------------------------------|
|--------------------------------------------------------------------------|
|--------------------------------------------------------------------------|

   BAR  N.H. BAR
|------------------|-----21-----21-----21----24-21----24-21----24-21-----|
|------------------|-23b----23b----23b----23-------23-------23-------23--|
|-0\\\\\\h4//\/\\--|-----------------------------------------------------|
|------------------|-----------------------------------------------------|
|------------------|-----------------------------------------------------|
|------------------|-----------------------------------------------------|


|-24fb^^^^r\\-------------|
|-------------------------|
|-------------------------|
|-------------------------|
|--------------x\\\\\\----|
|--------------x\\\\\\----|




 RIFF 6 x1 UNDER SOLO

|x3
|---------------------------------------|
|---------------------------------------|
|---------------------------------------|
|-7----------------8-4----------------8-|
|-5555555555555555-6-2222222222222222-6-|
|---------------------------------------|
  ................   ................

|x1
|------------------------------------------------------|
|------------------------------------------------------|
|------------------------------------------------------|
|-7----------------8-4----------------3----------------|
|-5555555555555555-6-2222222222222222-1111111111111111-|
|------------------------------------------------------|
  ................   ................ ................




 RIFF 3B BRIDGE x1

|---------------------------------------------------------------|
|---------------------------------------------------------------|
|---------------------------------------------------------------|
|---------------------------------------------------------------|
|-2-----------------------------------------------333333-222222-|
|-0000000000000000-111111-555555-4444444444444444---------------|
  ................ ...... ...... ................ ...... ......


|---------------------------------------------------------------|
|---------------------------------------------------------------|
|---------------------------------------------------------------|
|-------------------------------------------------5------4------|
|-2----------------3------7------6----------------3------2------|
|-0----------------1------5------4------------------------------|




 RIFF 2 VERSE x3

 RIFF 4 BRIDGE x1


 RIFF 7 INTERLUDE x1

|KING
|----------------------------------|----------------------------------|
|----------------------------------|----------------------------------|
|-----------------------5-4--------|-----------------------5-4---7tr8-|
|---------------------5-----5-4----|---------------------5-----5------|
|-----7-6---7-6---7-6-----------5--|-----7-6---7-6---7-6--------------|
|-0-0-----0-----0------------------|-0-0-----0-----0------------------|
| . .     .     .                    . .     .     .
|
|HANNEMAN
|----------------------------------|----------------------------------|
|----------------------------------|----------------------------------|
|----------------------------------|----------------------------------|
|----------------------------------|-3--------------------------------|
|-2---------------------------4444-|-1---------------------------2222-|
|-0---------------------------2222-|-----------------------------0000-|



|KING
|----------------------------------|----------------------------------|
|----------------------------------|----------------------------------|
|-----------------------5-4--------|-----------------------5-4---7tr8-|
|---------------------5-----5-4----|---------------------5-----5------|
|-----7-6---7-6---7-6-----------5--|-----7-6---7-6---7-6--------------|
|-0-0-----0-----0------------------|-0-0-----0-----0------------------|
| . .     .     .                    . .     .     .
|
|HANNEMAN
|----------------------------------|----------------------------------|
|----------------------------------|----------------------------------|
|----------------------------------|----------------------------------|
|----------------------------------|10-----------------------10101010-|
|-3---------------------------9999-|-8------------------------8-8-8-8-|
|-1---------------------------7777-|----------------------------------|



|KING
|----------------------------------|----------------------------------|
|----------------------------------|----------------------------------|
|-----------------------5-4--------|-----------------------5-4---7tr8-|
|---------------------5-----5-4----|---------------------5-----5------|
|-----7-6---7-6---7-6-----------5--|-----7-6---7-6---7-6--------------|
|-0-0-----0-----0------------------|-0-0-----0-----0------------------|
| . .     .     .                    . .     .     .
|
|HANNEMAN
|----------------------------------|----------------------------------|
|----------------------------------|----------------------------------|
|----------------------------------|----------------------------------|
|-9-----------------------12121212-|11---------------------------4444-|
|-7-----------------------10101010-|-9---------------------------2222-|
|----------------------------------|----------------------------------|



|KING
|----------------------------------|----------------------------------|
|----------------------------------|----------------------------------|
|-----------------------5-4--------|-----------------------5-4---7tr8-|
|---------------------5-----5-4----|---------------------5-----5------|
|-----7-6---7-6---7-6-----------5--|-----7-6---7-6---7-6--------------|
|-0-0-----0-----0------------------|-0-0-----0-----0------------------|
| . .     .     .                    . .     .     .
|
|HANNEMAN
|----------------------------------|----------------------------------|
|----------------------------------|----------------------------------|
|----------------------------------|----------------------------------|
|-5---------------------------9999-|-8-------------7------------------|
|-3---------------------------7777-|-6-------------5------------------|
|----------------------------------|----------------------------------|




 RIFF 8 INTERLUDE x8

|KING
|-----------------------------------|
|-----------------------------------|
|-----------------------------------|
|-----------------------------------|
|-----------------------------------|
|-0-0-000-000-000-000-000-000-000-0-|
| . . ... ... ... ... ... ... ... .
|
|HANNEMAN
|-----------------------------------|
|-----------------------------------|
|----11---11-11--10-----------------|
|-----9----9--9---8-----------------|
|-----------------------------------|
|-0-0-------------------------------|
  . .



 RIFF 9 INTERLUDE x1

|-------------------------------------------------------------|
|-------------------------------------------------------------|
|-------------------------------------------------------------|
|-4-444-444-444-3-333-----------4-4-----4-3-------------------|
|-2-222-222-222-1-111-4--5------2-2-----2-1-------------------|
|---------------------2--3--000-----000-----000-000-000-000-0-|
                            ...     ...     ... ... ... ... .


|---------------------------|
|---------------------------|
|---------------------------|
|-4-------------3-----------|
|-2-------------1-----4--5--|
|---------------------2--3--|




 RIFF 7A INTERLUDE x2

|KING
|----------------------------------|----------------------------------|
|----------------------------------|----------------------------------|
|----------------------------------|----------------------------------|
|-----------------------5-4--------|-----------------------5-4---7tr8-|
|---------------------5-----5-4----|---------------------5-----5------|
|-0-0-7-6-0-7-6-0-7-6-----------5--|-0-0-7-6-0-7-6-0-7-6--------------|
| . .     .     .                    . .     .     .
|
|HANNEMAN
|----------------------------------|----------------------------------|
|----------------------------------|----------------------------------|
|-----------------------5-4--------|-----------------------5-4---7tr8-|
|---------------------5-----5-4----|---------------------5-----5------|
|-----7-6---7-6---7-6-----------5--|-----7-6---7-6---7-6--------------|
|-0-0-----0-----0------------------|-0-0-----0-----0------------------|
  . .     .     .                    . .     .     .



 RIFF 10 OUTRO x2

|-----------------------------------|
|-----------------------------------|
|-----------------------------------|
|-3--5------------------------------|
|-1--3------------------------------|
|-------4-444-4-3-333-333-333-333-3-|
        . ... . . ... ... ... ... .



 FILL 2

|-------|
|-------|
|-------|
|-3--5--|
|-1--3--|
|-------|
   x  x



 SOLO 2 HANNEMAN

|-3-4-6-4-6-7-6-7-9-7-9-10-9-10-12-10-12-13-|-12-13-15-13-12-|
|-------------------------------------------|----------------|
|-------------------------------------------|----------------|
|-------------------------------------------|----------------|
|-------------------------------------------|----------------|
|-------------------------------------------|----------------|


|------------------------------------------------------------------|
|-15-14-12-15-14-12------------------------------------------------|
|-------------------15-13-12-15-13-12------------------------------|
|-------------------------------------14-12-11-14-12-11------------|
|-------------------------------------------------------13b^^\\\\--|
|------------------------------------------------------------------|


|-------------------------------------------------------------------------|
|-------------------------------------------------------------------------|
|-------------------------------------------------------15-16-18-15-16-18-|
|-------------------------------------14-15-17-14-15-17-------------------|
|-------------------13-14-16-13-14-16-------------------------------------|
|-12-13-15-12-13-15-------------------------------------------------------|
  .. .. .. .. .. .. .. .. .. .. .. ..

|-------------------15-16-18-16-15-------------------------------------------|
|-15-17-18-15-17-18----------------18-17-15-18-17-15-------------------------|
|----------------------------------------------------18-16-15-18-16-15-------|
|----------------------------------------------------------------------17b\\-|
|----------------------------------------------------------------------------|
|----------------------------------------------------------------------------|


|--15------------------------------------------|
|-/18fb^r-18b^^--15-18-15----18-15----18-15----|
|-------------------------18-------18-------18-|
|----------------------------------------------|
|----------------------------------------------|
|----------------------------------------------|


|--15------------------------------------------|
|-/18fb^r-18b^^--15-18-15----18-15----18-15----|
|-------------------------18-------18-------18-|
|----------------------------------------------|
|----------------------------------------------|
|----------------------------------------------|


|--15------------------------------------------|
|-/18fb^r-18b^^--15-18-15----18-15----18-15----|
|-------------------------18-------18-------18-|
|----------------------------------------------|
|----------------------------------------------|
|----------------------------------------------|


|-15--15--15--15--15--15--15--15\\\-|
|-18b-18b-18b-18b-18b-18b-18b-18b\\-|
|-----------------------------------|
|-----------------------------------|
|-----------------------------------|
|-----------------------------------|




 RIFF 10A x8 UNDER SOLO 2

|-----------------------------------|
|-----------------------------------|
|-----------------------------------|
|-----------------------------3--5--|
|-----------------------------1--3--|
|-444444443333333333333333333-------|
  ...........................

6. Crypts of Eternity

Tuning Eb


 RIFF 1 INTRO x2

|KING WITH FLANGER EFFECT
|-------------------------------------------------|
|-------------------------------------------------|
|-------------------------------------------------|
|-------------------------------------------------|
|-9----10----12----10-----9----10----12----14-----|
|---000---000---000---000---000---000---000---000-|
    ...   ...   ...   ...   ...   ...   ...   ...



 RIFF 1A INTRO x2

|BOTH
|-------------------------------------------------|
|-------------------------------------------------|
|-------------------------------------------------|
|-4-----5-----7-----5-----4-----5-----7-----9-----|
|-4-----5-----7-----5-----4-----5-----7-----9-----|
|---000---000---000---000---000---000---000---000-|
    ...   ...   ...   ...   ...   ...   ...   ...



 SOLO 1 HANNEMAN

|------------------------------------|--------------------------------------
|-15fb^^r--15b^^--15b-15b-15b-15b^^--|--------------------------------------
|-15fb^^r--15b^^--15b-15b-15b-15b^^--|-12-13-15-13-12-----------------------
|------------------------------------|----------------14-12-11--------------
|------------------------------------|-------------------------13-11-101113-
|------------------------------------|--------------------------------------

              A.H.
|-------------------|----------------------------------------------------|
|-------------------|---------9------------------10-------------------11-|
|----------12-13b^--|-9-10-12---12-10-9-10-11-13----13-11-10-11-12-14----|
|-11-12-14----------|----------------------------------------------------|
|-------------------|----------------------------------------------------|
|-------------------|----------------------------------------------------|


|-------------------------------------------------------------------------|
|-------------------12-------------------13-------------------14----------|
|-14-12-11-12-13-15----15-13-12-13-14-16----16-14-13-14-15-17----17-15-14-|
|-------------------------------------------------------------------------|
|-------------------------------------------------------------------------|
|-------------------------------------------------------------------------|


|-------------------------------------------|-------------------------|
|----------15-------------------16----------|-20202020-23-20202020-21-|
|-15-16-18----18-16-15-16-17-19----19-17-16-|-------------------------|
|-------------------------------------------|-------------------------|
|-------------------------------------------|-------------------------|
|-------------------------------------------|-------------------------|


|----------------------------------|-21fb^^r--21b^^--21-18-----------|
|-20202020-23-20202020-21-20202020-|-----------------------20-21b^^--|
|----------------------------------|---------------------------------|
|----------------------------------|---------------------------------|
|----------------------------------|---------------------------------|
|----------------------------------|---------------------------------|


|----------------------------------------------------------------------|
|-18-20-21-20-18-------------------------------------------------------|
|----------------21-19-18-21-19-18-------------------------------------|
|----------------------------------20-18-17-20-18-17-------------------|
|----------------------------------------------------19-17-16-19-17-16-|
|----------------------------------------------------------------------|


|-----------------------------------------------------------------------|
|-----------------------------------------------------------------------|
|-----------------------------------------------------------------------|
|-----------------------------------------------------------------------|
|-----------------------------------------------------10-11-13-10-11-13-|
|-18-16-15-18-16-15-15-13-12-15-13-12-9-10-12-9-10-12-------------------|

                       BAR      BAR        BAR                N.H. BAR
|---------------------------------------19b\\\\-----------------------------
|---------------------------------------------------------------------------
|-------------------13b\\\\-----------------------------------5/\/\/\/\\\\--
|-11-12-14-11-12-14---------------------------------------------------------
|------------------------------0\\\\---------------0//\\\\------------------
|---------------------------------------------------------------------------


|----------|
|----------|
|----------|
|----------|
|-0\\-x\\--|
|-----x\\--|




 RIFF 1B x4 UNDER SOLO 1

|-------------------------|
|-------------------------|
|-------------------------|
|-2-----3-----5-----3-----|
|-2-----3-----5-----3-----|
|---000---000---000---000-|
    ...   ...   ...   ...


 RIFF 1A x2 UNDER SOLO 1


 RIFF 2 x4 UNDER SOLO 1

|---------------------------|
|---------------------------|
|---------------------------|
|-9----9-9------8----12-11--|
|-7----7-7--10--6----10--9--|
|------------8--------------|
                       x  x



 FILL 1

|---------------------------------------------------------------|
|---------------------------------------------------------------|
|---------------------------------------------------------------|
|---------------------------------------------------------------|
|---------------------------------------------------------------|
|-0-000-000-000-000-000-000-000-000-000-000-000-000-000-000-000-|
  . ... ... ... ... ... ... ... ... ... ... ... ... ... ... ...



 RIFF 3A INTO VERSE x1

|KING
|----------------------------------|----------------------------------|
|----------------------------------|----------------------------------|
|----------------------------------|----------------------------------|
|-----------------------------6----|-----------------------------4----|
|-2---------------------------4----|-2---------------------------2----|
|-0--------------------------------|-0--------------------------------|
|  x                                  x
|
|HANNEMAN
|----------------------------------|----------------------------------|
|----------------------------------|----------------------------------|
|----------------------------------|----------------------------------|
|----------------------------------|----------------------------------|
|----8h10-----7h9-----6h8----11----|----8h10-----7h9-----6h8-----9----|
|-000-----000-----000-----000-9----|-000-----000-----000-----000-7----|
  ...     ...     ...     ...        ...     ...     ...     ...


|KING
|----------------------------------|----------------------------------|
|----------------------------------|----------------------------------|
|----------------------------------|-----------------------------3----|
|-----------------------------6----|-----------------------------1----|
|-2---------------------------4----|-2---------------------------1----|
|-0--------------------------------|-0--------------------------------|
|  x                                  x
|
|HANNEMAN
|----------------------------------|----------------------------------|
|----------------------------------|----------------------------------|
|----------------------------------|----------------------------------|
|----------------------------------|-----------------------------8----|
|----8h10-----7h9-----6h8----11----|----8h10-----7h9-----6h8-----6----|
|-000-----000-----000-----000-9----|-000-----000-----000-----000-6----|
  ...     ...     ...     ...        ...     ...     ...     ...


|KING
|----------------------------------|----------------------------------|
|----------------------------------|----------------------------------|
|----------------------------------|----------------------------------|
|-----9-------8-------7-------6----|-----9------8-------7-------------|
|-2---7-------6-------5-------4----|-----7------6-------5--------9----|
|-0-------0-0-----0-0-----0-0------|-0-0----0-0-----0-0-----0-0--7----|
|  x      . .     . .     . .        . .     . .     . .     . .
|
|HANNEMAN
|----------------------------------|----------------------------------|
|----------------------------------|----------------------------------|
|----------------------------------|----------------------------------|
|----------------------------------|----------------------------------|
|----8h10-----7h9-----6h8----11----|----8h10-----7h9-----6h8-----9----|
|-000-----000-----000-----000-9----|-000-----000-----000-----000-7----|
  ...     ...     ...     ...        ...     ...     ...     ...


|KING
|----------------------------------|----------------------------------|
|----------------------------------|----------------------------------|
|----------------------------------|----------------------------------|
|-----9-------8-------7-------6----|-----9------8-------7--------8----|
|-2---7-------6-------5-------4----|-----7------6-------5--------6----|
|-0-------0-0-----0-0-----0-0------|-0-0----0-0-----0-0-----0-0--6----|
|  x      . .     . .     . .        . .    . .     . .     . .
|
|HANNEMAN
|----------------------------------|----------------------------------|
|----------------------------------|----------------------------------|
|----------------------------------|----------------------------------|
|----------------------------------|-----------------------------8----|
|----8h10-----7h9-----6h8----11----|----8h10-----7h9-----6h8-----6----|
|-000-----000-----000-----000-9----|-000-----000-----000-----000-6----|
  ...     ...     ...     ...        ...     ...     ...     ...



 RIFF 3 VERSE x1


|----------------------------------|----------------------------------|
|----------------------------------|----------------------------------|
|----------------------------------|----------------------------------|
|----------------------------------|----------------------------------|
|----8h10-----7h9-----6h8----11----|----8h10-----7h9-----6h8-----9----|
|-000-----000-----000-----000-9----|-000-----000-----000-----000-7----|
  ...     ...     ...     ...        ...     ...     ...     ...


|----------------------------------|----------------------------------|
|----------------------------------|----------------------------------|
|----------------------------------|----------------------------------|
|----------------------------------|-----------------------------8----|
|----8h10-----7h9-----6h8----11----|----8h10-----7h9-----6h8-----6----|
|-000-----000-----000-----000-9----|-000-----000-----000-----000-6----|
  ...     ...     ...     ...        ...     ...     ...     ...


|----------------------------------|----------------------------------|
|----------------------------------|----------------------------------|
|----------------------------------|----------------------------------|
|----------------------------------|----------------------------------|
|----8h10-----7h9-----6h8----11----|----8h10-----7h9-----6h8-----9----|
|-000-----000-----000-----000-9----|-000-----000-----000-----000-7----|
  ...     ...     ...     ...        ...     ...     ...     ...


|----------------------------------|-----------------------------|
|----------------------------------|-----------------------------|
|----------------------------------|-----------------------------|
|----------------------------------|-----------------------------|
|----8h10-----7h9-----6h8----11----|----8h10-----7h9-----6h8-----|
|-000-----000-----000-----000-9----|-000-----000-----000-----000-|
  ...     ...     ...     ...        ...     ...     ...     ...




 RIFF 4 CHORUS x1

|x3
|--------------------|-------------------------|
|--------------------|-------------------------|
|--------------------|-------------------------|
|-8--------4----7----|-----8-----7-----6-----5-|
|-6--------2----5----|-----6-----5-----4-----3-|
|-6--------2----5----|-0-0---0-0---0-0---0-0---|
                       . .   . .   . .   . .  x

|x1
|--------------------|
|--------------------|
|--------------------|
|-8--------4----7----|
|-6--------2----5----|
|-6--------2----5----|




 FILL 2

|KING
|--------------------|
|--------------------|
|-9p8--7p6-----------|
|-----------7p6------|
|----------------8h9-|
|--------------------|
|
|
|HANNEMAN
|--------------------|
|--------------------|
|--------------------|
|--------------------|
|-6h7--5h6--4h5--3h4-|
|--------------------|




 RIFF 3B INTO VERSE 2 x1

|KING
|----------------------------------|----------------------------------|
|----------------------------------|----------------------------------|
|----------------------------------|----------------------------------|
|----------------------------------|----------------------------------|
|-2-------2-------2-------2--------|-2-------2-------2-------2--------|
|-0-------0-------0-------0--------|-0-------0-------0-------0--------|
|  x       x       x       x          x       x       x       x
|
|HANNEMAN
|----------------------------------|----------------------------------|
|----------------------------------|----------------------------------|
|----------------------------------|----------------------------------|
|----------------------------------|----------------------------------|
|----8h10-----7h9-----6h8----11----|----8h10-----7h9-----6h8-----9----|
|-000-----000-----000-----000-9----|-000-----000-----000-----000-7----|
  ...     ...     ...     ...        ...     ...     ...     ...


|KING
|----------------------------------|----------------------------------|
|----------------------------------|----------------------------------|
|----------------------------------|----------------------------------|
|----------------------------------|-----9-------8-------7-------8----|
|-2-------2-------2-------2--------|-2---7-------6-------5-------6----|
|-0-------0-------0-------0--------|-0-0-----0-0-----0-0-----0-0-6----|
|  x       x       x       x         . .     . .     . .     . .
|
|HANNEMAN
|----------------------------------|----------------------------------|
|----------------------------------|----------------------------------|
|----------------------------------|----------------------------------|
|----------------------------------|-----------------------------8----|
|----8h10-----7h9-----6h8----11----|----8h10-----7h9-----6h8-----6----|
|-000-----000-----000-----000-9----|-000-----000-----000-----000-6----|
  ...     ...     ...     ...        ...     ...     ...     ...



|----------------------------------|----------------------------------|
|----------------------------------|----------------------------------|
|----------------------------------|----------------------------------|
|----------------------------------|----------------------------------|
|----8h10-----7h9-----6h8----11----|----8h10-----7h9-----6h8-----9----|
|-000-----000-----000-----000-9----|-000-----000-----000-----000-7----|
  ...     ...     ...     ...        ...     ...     ...     ...


|----------------------------------|----------------------------------|
|----------------------------------|----------------------------------|
|----------------------------------|----------------------------------|
|----------------------------------|-----------------------------8----|
|----8h10-----7h9-----6h8----11----|----8h10-----7h9-----6h8-----6----|
|-000-----000-----000-----000-9----|-000-----000-----000-----000-6----|
  ...     ...     ...     ...        ...     ...     ...     ...



 RIFF 3 VERSE x1

 RIFF 4 CHORUS x1


 RIFF 5 BREAK x4

|KING
|-----------------|-----------------|
|-----------------|-----------------|
|-----------------|-----------------|
|-----------------|-----------------|
|---6-5---5-3-6---|---6-5---3-------|
|-3-----6---------|-3-----6---6-5-4-|
| .     .           .     .   . . .
|
|HANNEMAN
|-----------------|-----------------|
|-----------------|-----------------|
|-----------------|-----------------|
|-----------------|-----------------|
|-5---------------|-5-------------6-|
|-3---------------|-3-------------4-|
   x                 x            .



 RIFF 5A BREAK x3

|-----------------|-----------------|
|-----------------|-----------------|
|-----------------|-----------------|
|-----------------|-----------------|
|---6-5---5-3-6---|---6-5---3-------|
|-3-----6---------|-3-----6---6-5-4-|
| .     .           .     .   . . .



 FILL 3

|-------------------|
|-------------------|
|-------------------|
|-------------------|
|---6-5---3-------5-|
|-3-----6---6-5-4-3-|
  .     .   . . .  x



 RIFF 6 INTERLUDE x1

|KING
|-----------------|-----------------|-----------------|-----------------|
|-----------------|-----------------|-----------------|-----------------|
|-----------------|-----------------|-----------------|-----------------|
|--------------3--|-----------------|--------------3--|-----------------|
|-2------3-----1--|---4-3---3-2---2-|-2------3-----1--|---4-3---3-2---2-|
|-0--0-0-1-0-0----|-5-----4-----3---|-0--0-0-1-0-0----|-5-----4-----3---|
|    . .   . .                           . .   . .      . . . . . . . .
|
|HANNEMAN
|-----------------|-----------------|-----------------|-----------------|
|-----------------|-----------------|-----------------|-----------------|
|-----------------|-----------------|-----------------|-----------------|
|--------------3--|---4-3---3-2---2-|--------------3--|-----------------|
|-2------3-----1--|-5-----4-----3---|-2------3-----1--|---4-3---3-2---2-|
|-0--0-0-1-0-0----|-----------------|-0--0-0-1-0-0----|-5-----4-----3---|
     . .   . .                           . .   . .      . . . . . . . .



 RIFF 6A INTERLUDE x2

|KING
|-----------------|-----------------|-----------------|-----------------|
|-----------------|-----------------|-----------------|-----------------|
|-----------------|-----------------|-----------------|---6-5---5-4---4-|
|--------------3--|-----------------|--------------3--|-7-----6-----5---|
|-2------3-----1--|---4-3---3-2---2-|-2------3-----1--|-----------------|
|-0--0-0-1-0-0----|-5-----4-----3---|-0--0-0-1-0-0----|-----------------|
|    . .   . .                           . .   . .
|
|HANNEMAN
|-----------------|-----------------|-----------------|-----------------|
|-----------------|-----------------|-----------------|-----------------|
|-----------------|-----------------|-----------------|--1110--10-9---9-|
|--------------3--|---4-3---3-2---2-|--------------3--|12----11----10---|
|-2------3-----1--|-5-----4-----3---|-2------3-----1--|-----------------|
|-0--0-0-1-0-0----|-----------------|-0--0-0-1-0-0----|-----------------|
     . .   . .                           . .   . .


|KING
|-----------------|-----------------|-----------------|-----------------|
|-----------------|-----------------|-----------------|-----------------|
|-----------------|-----------------|-----------------|---6-5---5-4---4-|
|--------------3--|-----------------|--------------3--|-7-----6-----5---|
|-2------3-----1--|---4-3---3-2---2-|-2------3-----1--|-----------------|
|-0--0-0-1-0-0----|-5-----4-----3---|-0--0-0-1-0-0----|-----------------|
|    . .   . .                           . .   . .
|
|HANNEMAN
|-----------------|-----------------|-----------------|-----------------|
|-----------------|-----------------|-----------------|-----------------|
|-----------------|-----------------|-----------------|--1110--10-9---9-|
|--------------3--|---4-3---3-2---2-|--------------3--|12----11----10---|
|-2------3-----1--|-5-----4-----3---|-2------3-----1--|-----------------|
|-0--0-0-1-0-0----|-----------------|-0--0-0-1-0-0----|-----------------|
     . .   . .                           . .   . .


|HANNEMAN
|-----------------|
|-----------------|
|--1110--10-9---9-|
|12----11----10---|
|-----------------|
|-----------------|
|
|
|KING
|--1413--1312--12-|
|15----14----13---|
|-----------------|
|-----------------|
|-----------------|
|-----------------|




 FILL 4

|-----------------|-----------------|
|-----------------|-----------------|
|-----------------|-----------------|
|--------------3--|-----------------|
|-2------3-----1--|---4-3---3-2---2-|
|-0--0-0-1-0-0----|-5-----4-----3---|
     . .   . .      . . . . . . . .



 RIFF 7 INTERLUDE x8

|---------------------------|
|---------------------------|
|---------------------------|
|-5---5--6---6--------------|
|-3---3--4---4--------------|
|---3------4----0-0000-0000-|
                . .... ....



 SOLO 2 HANNEMAN

|------------------------------------------------------|
|----------------11/12-11b^^---------------------------|
|-----------------------------12-12--11-11--9-9--------|
|----------9b^^----------------------------------9b^^--|
|-0//\\\\----------------------------------------------|
|------------------------------------------------------|


|------------------------------------------------------------------------|
|-11/12-11b^^------------------------------------------------------------|
|--------------12-12--11-11--9--9-10-12-10-9-----------------------------|
|--------------------------------------------11-9-8-11-9-8---------------|
|----------------------------------------------------------10-8-7-10-8-7-|
|------------------------------------------------------------------------|


|-----------------------------------------------------------------------|
|-------------------------------------------------------9-11-12-9-11-12-|
|---------------------------------------9-10-12-9-10-12-----------------|
|-------------------------8-9-11-8-9-11---------------------------------|
|-----------7-8-10-7-8-10-----------------------------------------------|
|-9-7-6-7-9-------------------------------------------------------------|


|-9-10-12-9-10-12-10-12-13-10-12-13-|-12-15-12-15-13-16-13-16-14-17-14-17-|
|-----------------------------------|-------------------------------------|
|-----------------------------------|-------------------------------------|
|-----------------------------------|-------------------------------------|
|-----------------------------------|-------------------------------------|
|-----------------------------------|-------------------------------------|


|-15-18-15-18-16-19-16-19-17-20-17-20-18-21-18-21-19-22-19-22-20-23-20-23-24
|---------------------------------------------------------------------------
|---------------------------------------------------------------------------
|---------------------------------------------------------------------------
|---------------------------------------------------------------------------
|---------------------------------------------------------------------------



 RIFF 7A x4 UNDER SOLO 2

|---------------------------------------------------|
|---------------------------------------------------|
|---------------------------------------------------|
|-5---5--6---6--9-----------8-----------7-----------|
|-3---3--4---4--7-----------6-----------5-----------|
|---3------4------0-0-0-0-0---0-0-0-0-0---0-0-0-0-0-|
                  . . . . .   . . . . .   . . . . .



 SOLO 3 KING
   BAR      BAR      BAR      BAR           BAR
|----------------------------------------------------------------------------|
|------------------------------------------------------------------18-20b^^--|
|-0\\\\\\-----------------------------7/18----------------18-19-21-----------|
|----------------------------0//\\\\-------------17-18-20--------------------|
|----------0\/\/\\-----------------------------------------------------------|
|-------------------0\/\/\\----------------0\/\\-----------------------------|

  A.H.     BAR  N.H. BAR
|----------------------------|
|-20b^-----------------------|
|----------------------------|
|---------0\\\\h3//\/\/\\----|
|----------------------------|
|----------------------------|



 RIFF 7A x4 UNDER SOLO 3


 RIFF 7B x1

|---------------------------------------------------------|
|---------------------------------------------------------|
|---------------------------------------------------------|
|-5---5--6---6--7---7--8---8--9---9-10--10-11--11-12--12--|
|-3---3--4---4--5---5--6---6--7---7--8---8--9---9-10--10--|
|---3------4------5------6------7------8------9-----10----|



 RIFF 8 BREAK x4

|-------------------------------------|
|-------------------------------------|
|-10\\---10\\---10\\------------------|
|--8\\----8\\----8\\---11--11-12--12--|
|--8\\----8\\----8\\----9---9-10--10--|
|-------------------------9-----10----|




 RIFF 1B BREAK x1

|KING WITH FLANGER EFFECT
|-------------------------------------------------|
|-------------------------------------------------|
|-------------------------------------------------|
|-------------------------------------------------|
|-9----10----12----10-----9----10----12----14-----|
|---000---000---000---000---000---000---000---000-|
|   ...   ...   ...   ...   ...   ...   ...   ...
|
|HANNEMAN
|-------------------------------------------------|
|-------------------------------------------------|
|-------------------------------------------------|
|-------------------------------------------------|
|-2-----------------------------------------------|
|-0-----------------------------------------------|


|KING WITH FLANGER EFFECT
|-------------------------------------------------|
|-------------------------------------------------|
|-------------------------------------------------|
|-------------------------------------------------|
|-9----10----12----10-----9----10----12----14-----|
|---000---000---000---000---000---000---000---000-|
|   ...   ...   ...   ...   ...   ...   ...   ...
|
|HANNEMAN
|-------------------------------------------------|
|-------------------------------------------------|
|-------------------------------------------------|
|-------------------------------------------------|
|-2-----------------------------------------------|
|-0\\\\\\///////\\\\\\\//////\\\\\/\/\/\\\\\\\----|




 RIFF 1A BREAK x2


 RIFF 9 OUTRO x1

|KING
|------------------------------------|
|------------------------------------|
|------------------------------------|
|------------------------------------|
|-7-------------------------5---5tr6-|
|-5555-6-5555-8-5555-6-5555---5------|
| ....   ....   ....   ....
|
|HANNEMAN
|------------------------------------|
|------------------------------------|
|------------------------------------|
|------------------------------------|
|-7----------------------------------|
|-5----------------------------------|
   x


|BOTH x2
|------------------------------------|
|------------------------------------|
|------------------------------------|
|------------------------------------|
|-7-------------------------5---5tr6-|
|-5555-6-5555-8-5555-6-5555---5------|
  ....   ....   ....   ....


|KING x2
|------------------------------------|
|------------------------------------|
|------------------------------------|
|------------------------------------|
|-7-------------------------5---5tr6-|
|-5555-6-5555-8-5555-6-5555---5------|
| ....   ....   ....   ....
|
|HANNEMAN x2
|------------------------------------|
|------------------------------------|
|---------------------------7---7tr8-|
|-7777-8-777710-7777-8-7777---7------|
|------------------------------------|
|------------------------------------|
  ....   ....   ....   ....


|KING x2
|------------------------------------|
|---------------------------8---8tr9-|
|-7777-8-777710-7777-8-7777---7------|
|------------------------------------|
|------------------------------------|
|------------------------------------|
|
|
|HANNEMAN x2
|------------------------------------|
|------------------------------------|
|---------------------------7---7tr8-|
|-7777-8-777710-7777-8-7777---7------|
|------------------------------------|
|------------------------------------|
  ....   ....   ....   ....


|KING x2
|------------------------------------|
|---------------------------8---8tr9-|
|-7777-8-777710-7777-8-7777---7------|
|------------------------------------|
|------------------------------------|
|------------------------------------|
|
|
|HANNEMAN x2
|---------------------------8---8tr9-|
|-8888-9-888811-8888-9-8888---8------|
|------------------------------------|
|------------------------------------|
|------------------------------------|
|------------------------------------|



|KING x2
|-10101010-11-10101010-13-10101010-11-10101010-13-1010-11-|
|---------------------------------------------------------|
|---------------------------------------------------------|
|---------------------------------------------------------|
|---------------------------------------------------------|
|---------------------------------------------------------|
|
|
|HANNEMAN x2
|---------------------------------------------------------|
|-88888888--9-88888888-11-88888888--9-88888888-11-8888--9-|
|---------------------------------------------------------|
|---------------------------------------------------------|
|---------------------------------------------------------|
|---------------------------------------------------------|



|KING
|-13-11-10-11p10-----------------------------------|
|----------------11p10-11tr12-10-11----------------|
|-----------------------------------11-10-12-------|
|--------------------------------------------12----|
|-----------------------------------------------12-|
|--------------------------------------------------|
|
|
|HANNEMAN
|--------------------------------------------------|
|-11--9--8--11p9-----------------------------------|
|------------------8p7---8tr9--7--8----------------|
|------------------------------------9--8-10-------|
|--------------------------------------------10----|
|-----------------------------------------------10-|




 RIFF 9A OUTRO x4

|------------------------------------|
|------------------------------------|
|------------------------------------|
|------------------------------------|
|-7-------------------------5---5tr6-|
|-5555-6-5555-8-5555-6-5555---5------|
  ....   ....   ....   ....



 SOLO 4 HANNEMAN

|--------------------------------------------------------------------------|
|--------------------------------------------------------------------------|
|-------------------------------------------------------16-17-19-16-19b^^--|
|-------------------------------------15-16-18-15-16-18--------------------|
|-------------------14-15-17-14-15-17--------------------------------------|
|-13-14-16-13-14-16--------------------------------------------------------|


|--------------------------------------------------------------|
|-16-19-16----19-16----19-16----19-16----19-16-21///\/\/\/\\\--|
|----------19-------19-------19-------19-----------------------|
|--------------------------------------------------------------|
|--------------------------------------------------------------|
|--------------------------------------------------------------|




 RIFF 10 x1 UNDER SOLO 4

|----------------------------------|
|----------------------------------|
|----------------------------------|
|----------------------------------|
|-9--------------------------------|
|-77777777777777777777777777777777-|
  ................................



 RIFF 9A OUTRO x2


 SOLO 5 KING

|-----17--------17--------19-20-22-20-19-------------------|----------------|
|--------21b^^-----21b^^-----------------22-21-19-21fb^^r--|-19-21-22-21-19-|
|----------------------------------------------------------|----------------|
|-x\\------------------------------------------------------|----------------|
|-x\\------------------------------------------------------|----------------|
|----------------------------------------------------------|----------------|

                                                                 N.H. BAR
|--------------------------------------------------------------------------|
|--------------------------------------------------------------------------|
|-22-20-19-22-20-19--------------------------------------------------------|
|-------------------21-19-18-21-19-18--------------------------------------|
|-------------------------------------20-18-17-20-18-17----------15\\\\----|
|-------------------------------------------------------19-17-16-----------|




 RIFF 11 x1 UNDER SOLO 5

|----------------------------------|
|----------------------------------|
|----------------------------------|
|----------------------------------|
|-9--------------------------------|
|-77777777777777777777777777777777-|
  ................................



 RIFF 9A OUTRO x2


 RIFF 12 OUTRO x4

|----------------------------------|
|----------------------------------|
|----------------------------------|
|-----9-------8-------7-------6----|
|-----7-------6-------5-------4----|
|-000-----000-----000-----000------|
  ...     ...     ...     ...



 RIFF 3C OUTRO x1

|KING
|----------------------------------|----------------------------------|
|----------------------------------|----------------------------------|
|----------------------------------|----------------------------------|
|-----------------------------6----|----------------------------------|
|-2---------------------------4----|-2---------------------------9----|
|-0--------------------------------|-0---------------------------7----|
|  x                                  x
|
|HANNEMAN
|----------------------------------|----------------------------------|
|----------------------------------|----------------------------------|
|----------------------------------|----------------------------------|
|----------------------------------|----------------------------------|
|----8h10-----7h9-----6h8----11----|----8h10-----7h9-----6h8-----9----|
|-000-----000-----000-----000-9----|-000-----000-----000-----000-7----|
  ...     ...     ...     ...        ...     ...     ...     ...


|KING
|----------------------------------|----------------------------------|
|----------------------------------|----------------------------------|
|----------------------------------|----------------------------------|
|----------------------------------|----------------------------------|
|-2-------2-------2-------2--------|-2-------2-------2-------2--------|
|-0-------0-------0-------0--------|-0-------0-------0-------0--------|
|  x       x       x       x          x       x       x       x
|
|HANNEMAN
|----------------------------------|----------------------------------|
|----------------------------------|----------------------------------|
|----------------------------------|----------------------------------|
|----------------------------------|-----------------------------8----|
|----8h10-----7h9-----6h8----11----|----8h10-----7h9-----6h8-----6----|
|-000-----000-----000-----000-9----|-000-----000-----000-----000-6----|
  ...     ...     ...     ...        ...     ...     ...     ...



 FILL 5 END

|----------------------------------------|
|----------------------------------------|
|----------------------------------------|
|---------------------------------9\\----|
|-2222222222222222----------------7\\----|
|-0000000000000000-----------------------|


7. Hardening of the Arteries

Tuning Eb


 RIFF 1 INTRO x1

|KING
|---------------------------------------|
|---------------------------------------|
|---------------------------------------|
|---------------------------------------|
|-3p2-4--------3--------2---------------|
|-------2222-3---2222-3---222222-0-2222-|
        .... . . .... . . ...... . ....


|KING
|---------------------------------------|
|---------------------------------------|
|---------------------------------------|
|---------------------------------------|
|-3p2-4--------3--------2---------------|
|-------2222-3---2222-3---222222-0-2222-|
|       .... . . .... . . ...... . ....
|
|HANNEMAN
|---------------------------------------|
|---------------------------------------|
|---------------------------------------|
|---------------------------------------|
|---------------------------------------|
|--------------------15\\\\\\\\\\\\\\\--|



|KING x2
|---------------------------------------|
|---------------------------------------|
|---------------------------------------|
|---------------------------------------|
|-3p2-4--------3--------2---------------|
|-------2222-3---2222-3---222222-0-2222-|
|       .... . . .... . . ...... . ....
|
|HANNEMAN x2
|---------------------------------------|
|---------------------------------------|
|---------------------------------------|
|---------------------------------------|
|-------4--------4--------4--------4----|
|-------2--------2--------2--------2----|
         x        x        x        x


|KING
|----------------------------------|
|----------------------------------|
|----------------------------------|
|----------------------------------|
|-3p2-4--------3--------2----------|
|-------2222-3---2222-3---222222-0-|
|       .... . . .... . . ...... .
|
|HANNEMAN
|----------------------------------|
|----------------------------------|
|----------------------------------|
|----------------------------------|
|-------4--------4--------4--------|
|-------2--------2--------2--------|
         x        x        x



 RIFF 2 VERSE x1

|----------------|----------------|----------------|----------------|
|----------------|----------------|----------------|----------------|
|----------------|----------------|----------------|----------------|
|----------------|----------------|----------------|----------------|
|-2--------4---5-|-2--------5---8-|-2--------4---5-|-2--------5---8-|
|-00000000-2-0-3-|-00000000-3-0-6-|-00000000-2-0-3-|-00000000-3-0-6-|
  ........   .     ........   .     ........   .     ........   .


|----------------|----------------|----------------|----------------|
|----------------|----------------|----------------|----------------|
|----------------|----------------|----------------|----------------|
|----------------|----------------|----------------|----------------|
|-2--------4---5-|-2--------5---8-|-2--------4---5-|-2--------5---4-|
|-00000000-2-0-3-|-00000000-3-0-6-|-00000000-2-0-3-|-00000000-3-0-2-|
  ........   .     ........   .     ........   .     ........   .



 RIFF 3 BRIDGE x1

|---------------------------------------|
|---------------------------------------|
|---------------------------------------|
|---------------------------------------|
|-5----------------7-9----------------7-|
|-3333333333333333-5-7777777777777777-5-|
  ................   ................


|---------------------------------------|
|---------------------------------------|
|---------------------------------------|
|---------------------------------------|
|-5----------------7-9------------------|
|-3333333333333333-5-777777777666666666-|
  ................   ..................



 RIFF 1A CHORUS x4

|---------------------------------------|
|---------------------------------------|
|---------------------------------------|
|---------------------------------------|
|-3p2-4--------3--------2---------------|
|-------2222-3---2222-3---222222-0-2222-|
        .... . . .... . . ...... . ....



 RIFF 2 VERSE x1


 RIFF 4 BRIDGE x1

|x3
|-------------------------------|
|-------------------------------|
|-------------------------------|
|--------6-5---5----------------|
|------------6----------4-3---3-|
|-333333---------333333-----4---|
  ......         ......


|x1
|-----------------------|
|-----------------------|
|-----------------------|
|--------6-5---5--------|
|------------6----------|
|-333333---------333333-|
  ......         ......



 RIFF 1B CHORUS x1

|x3
|---------------------------------------|
|---------------------------------------|
|---------------------------------------|
|---------------------------------------|
|-3p2-4--------3--------2---------------|
|-------2222-3---2222-3---222222-0-2222-|
        .... . . .... . . ...... . ....

|x1
|---------------------------------------|
|---------------------------------------|
|---------------------------------------|
|---------------------------------------|
|-3p2-4--------3--------2-4----3-3-3-2--|
|-------2222-3---2222-3---2----1-1-1-0--|
        .... . . .... . .  x          x



 RIFF 5 INTERLUDE x1

|KING
|-------------|-------------|-------------|-------------|
|-------------|-------------|-------------|-------------|
|-------------|-------------|-------------|-------------|
|-------------|-------------|-------------|-------------|
|-------------|-------------|-------------|-----------3-|
|-00000000101-|-00000000101-|-00000000101-|-00000000101-|
  ...........   ...........   ...........   .......... x



 SOLO 1 KING
   BAR   BAR/\/\/\/\/\/\/\/\/\/\
|--------------------------------------------------------------------------|
|-0\\\\--------------------------------------------------------------------|
|-0\\\\--4p3p0h4p3p0h4p3p0h4p3p0-0h4h6p0h4h6p0h4h6p0h6h7p0h6h7p0h6h7/9b^^--|
|--------------------------------------------------------------------------|
|--------------------------------------------------------------------------|
|--------------------------------------------------------------------------|


|-/21-24242424-21212121-24242424-21212121-24-21-24-21-24-21-24-21-24-21-|
|-----------------------------------------------------------------------|
|-----------------------------------------------------------------------|
|-----------------------------------------------------------------------|
|-----------------------------------------------------------------------|
|-----------------------------------------------------------------------|


|-24-21-24-21-24-21-24fb^^^r--21-24-21-24-21-24-21----------|
|--------------------------------------------------x\\\\----|
|--------------------------------------------------x\\\\----|
|-----------------------------------------------------------|
|-----------------------------------------------------------|
|-----------------------------------------------------------|




 RIFF 5A x1 UNDER SOLO 1

|-------------|-------------|-------------|-------------|
|-------------|-------------|-------------|-------------|
|-------------|-------------|-------------|-------------|
|-------------|-------------|-------------|-------------|
|-------------|-------------|-------------|-------------|
|-00000000101-|-00000000101-|-00000000101-|-00000000101-|
  ...........   ...........   ...........   ...........


|-------------|-------------|-------------|-------------|
|-------------|-------------|-------------|-------------|
|-------------|-------------|-------------|-------------|
|-------------|-------------|-------------|-------------|
|-------------|-------------|-------------|-----------3-|
|-00000000101-|-00000000101-|-00000000101-|-00000000101-|
  ...........   ...........   ...........   .......... x




 SOLO 2 HANNEMAN

|---------------------------------------------------------------|
|---------------------------------------------------------------|
|-------------5-6-8-5-6-8-------------6-8-9-6-8-9---------------|
|-4-5-7-4-5-7-------------5-7-8-5-7-8-------------7-8-10-7-8-10-|
|---------------------------------------------------------------|
|---------------------------------------------------------------|


|-----------------------------------------------|
|-----------------------------------------------|
|-8-9-11-8-9-11-----------------9-11-12-9-11-12-|
|---------------8-10-11-8-10-11-----------------|
|-----------------------------------------------|
|-----------------------------------------------|


|-------------------------------------------------------|
|-------------------------------------------------------|
|----------11-12-14-11-12-14----------12-14-15-12-14-15-|
|-10-11-13-------------------11-13-14-------------------|
|-------------------------------------------------------|
|-------------------------------------------------------|

                                                           BAR
|-------------------------------------------------------------------|
|-------------------------------------------------------------------|
|----------14-15-17-14-15-17----------15-17-18-15-17-18--20/\/\/\\--|
|-13-14-16-------------------14-16-17-------------------------------|
|-------------------------------------------------------------------|
|-------------------------------------------------------------------|

   BAR    BAR                             N.H. BAR    BAR    BAR
|-------------------------------------------------------------------|
|-------------------------------------------------------------------|
|--------0//\\\\--------------2-3-5-2-3-5-3\/\/\/\\-----------------|
|-----------------1-2-4-1-2-4---------------------------------------|
|----------------------------------------------------0\\\\----------|
|-0\\\\-----------------------------------------------------0\/\/\--|

  N.H. BAR
|-----------------------|
|-----------------------|
|-4//\//\/\/\\/\\/\\\\--|
|-----------------------|
|-----------------------|
|-----------------------|




 RIFF 6 x8 UNDER SOLO 2

|------------------------------|
|------------------------------|
|------------------------------|
|------------------------------|
|-4----------------------------|
|-222222222222222222222222-3-4-|
  ........................ . .



 RIFF 5B BREAK x1

|KING
|-------------|-------------|-------------|-------------|
|-------------|-------------|-------------|-------------|
|-------------|-------------|-------------|-------------|
|-------------|-------------|-------------|-------------|
|-------------|-------------|-------------|-----------3-|
|-00000000101-|-00000000101-|-00000000101-|-00000000101-|
| ...........   ...........   ...........   .......... x
|
|HANNEMAN
|-------------|-------------|-------------|-------------|
|-------------|-------------|-------------|-------------|
|-------------|-------------|-------------|-------------|
|-------------|-------------|-------------|-------------|
|-2---------3-|-----------3-|-----------3-|-----------3-|
|-0---------1-|-----------1-|-----------1-|-----------1-|
   x         x             x             x             x



 FILL 1

|-------|
|-------|
|-------|
|-------|
|-3-3-3-|
|-1-1-1-|




 RIFF 2 VERSE x1

 RIFF 1C CHORUS x1

|x3
|---------------------------------------|
|---------------------------------------|
|---------------------------------------|
|---------------------------------------|
|-3p2-4--------3--------2---------------|
|-------2222-3---2222-3---222222-0-2222-|
        .... . . .... . . ...... . ....


|KING
|---------------------------------------|
|---------------------------------------|
|---------------------------------------|
|---------------------------------------|
|-3p2-4--------3--------2---------------|
|-------2222-3---2222-3---222222-0-2222-|
|       .... . . .... . . ...... . ....
|
|HANNEMAN
|---------------------------------------|
|---------------------------------------|
|---------------------------------------|
|---------------------------------------|
|-3p2-4--------3------4-----------------|
|-------2222-3---2222-2-----------------|
        .... . . ....  x



 RIFF 1D BREAK x1

|KING x2
|---------------------------------------|
|---------------------------------------|
|---------------------------------------|
|---------------------------------------|
|-3p2-4--------3--------2---------------|
|-------2222-3---2222-3---222222-0-2222-|
|       .... . . .... . . ...... . ....
|
|HANNEMAN x2
|---------------------------------------|
|---------------------------------------|
|---------------------------------------|
|---------------------------------------|
|-------4--------4--------4--------4----|
|-------2--------2--------2--------2----|
         x        x        x        x


|KING
|---------------------------------------|
|---------------------------------------|
|---------------------------------------|
|---------------------------------------|
|-3p2-4--------3-4---4------------------|
|-------2222-3---2---2------------------|
|       .... . .      x
|
|HANNEMAN
|---------------------------------------|
|---------------------------------------|
|---------------------------------------|
|---------------------------------------|
|-------4--------4---4------------------|
|-------2--------2---2------------------|
         x            x



 FILL 1


 RIFF 7 OUTRO x1 (HELL AWAITS INTRO)

|KING
|-------------------------------------------------------------|
|-------------------------------------------------------------|
|-------------------------------------------------------------|
|---------------------------------------------------------3---|
|-2---------------------------------------------------2---1---|
|-0---------------------------------------------------0-------|
|
|
|HANNEMAN
|-------------------------------------------------------------|
|-------------------------------------------------------------|
|-------------------------------------------------------------|
|-------------------------------------------------------------|
|-------------------------------------------------------------|
|-0-0-0-0-0-0-0-0-0-0-0-0-0-0-0-0-0-0-0-0-0-0-0-0-0-0-0-0-0-0-|
  . . . . . . . . . . . . . . . . . . . . . . . . . . . . . .



|KING
|-------------------------------------------------------------|
|-------------------------------------------------------------|
|-------------------------------------------------------------|
|-------------------------------------------------------------|
|-----------------------------------------------------2---3---|
|-----------------------------------------------------0---1---|
|
|
|HANNEMAN
|-------------------------------------------------------------|
|-------------------------------------------------------------|
|-------------------------------------------------------------|
|-------------------------------------------------------------|
|-------------------------------------------------------------|
|-0-0-0-0-0-0-0-0-0-0-0-0-0-0-0-0-0-0-0-0-0-0-0-0-0-0-0-0-0-0-|
  . . . . . . . . . . . . . . . . . . . . . . . . . . . . . .



|KING
|-------------------------------------------------------------|
|-------------------------------------------------------------|
|-------------------------------------------------------------|
|---------------------------------------------------------3---|
|-----------------------------------------------------2---1---|
|-----------------------------------------------------0-------|
|
|
|HANNEMAN
|-------------------------------------------------------------|
|-------------------------------------------------------------|
|-------------------------------------------------------------|
|-------------------------------------------------------------|
|-------------------------------------------------------------|
|-0-0-0-0-0-0-0-0-0-0-0-0-0-0-0-0-0-0-0-0-0-0-0-0-0-0-0-0-0-0-|
  . . . . . . . . . . . . . . . . . . . . . . . . . . . . . .



|KING
|-------------------------------------------------------------|
|-------------------------------------------------------------|
|-------------------------------------------------------------|
|-----------------------------------------------------9--10---|
|-----------------------------------------------------7---8---|
|-------------------------------------------------------------|
|
|
|HANNEMAN
|-------------------------------------------------------------|
|-------------------------------------------------------------|
|-------------------------------------------------------------|
|-------------------------------------------------------------|
|-------------------------------------------------------------|
|-0-0-0-0-0-0-0-0-0-0-0-0-0-0-0-0-0-0-0-0-0-0-0-0-0-0-0-0-0-0-|
  . . . . . . . . . . . . . . . . . . . . . . . . . . . . . .



|KING
|-------------------------------------------------------------|
|-------------------------------------------------------------|
|-------------------------------------------------------------|
|-------------------------------------------------------------|
|-----------------------------------------------------2---3---|
|-----------------------------------------------------0---1---|
|
|
|HANNEMAN
|-------------------------------------------------------------|
|-------------------------------------------------------------|
|-------------------------------------------------------------|
|-------------------------------------------------------------|
|-------------------------------------------------------------|
|-0-0-0-0-0-0-0-0-0-0-0-0-0-0-0-0-0-0-0-0-0-0-0-0-0-0-0-0-0-0-|
  . . . . . . . . . . . . . . . . . . . . . . . . . . . . . .



|KING
|-------------------------------------------------------------|
|-------------------------------------------------------------|
|-------------------------------------------------------------|
|---------------------------------------------------------3---|
|-----------------------------------------------------2---1---|
|-----------------------------------------------------0-------|
|
|
|HANNEMAN
|-------------------------------------------------------------|
|-------------------------------------------------------------|
|-------------------------------------------------------------|
|-------------------------------------------------------------|
|-------------------------------------------------------------|
|-0-0-0-0-0-0-0-0-0-0-0-0-0-0-0-0-0-0-0-0-0-0-0-0-0-0-0-0-0-0-|
  . . . . . . . . . . . . . . . . . . . . . . . . . . . . . .



|KING
|----------------|
|----------------|
|----------------|
|----------------|
|---------7---8--|
|-------0-5---6--|
|       .
|
|HANNEMAN
|----------------|
|----------------|
|----------------|
|----------------|
|----------------|
|-0-0-0-0-0-0-0--|
  . . . . . . .



 RIFF 8 OUTRO CONTINUE TILL FADE

|-------------------------------------------------------------|
|-------------------------------------------------------------|
|-------------------------------------------------------------|
|-------------------------------------------------------------|
|-------------------------------------------------------------|
|-0-0-0-0-0-0-0-0-0-0-0-0-0-0-0-0-0-0-0-0-0-0-0-0-0-0-0-0-0-0-|
  . . . . . . . . . . . . . . . . . . . . . . . . . . . . . .



 WILD SOLOING OVER RIFF 8



            
            
Suggest correction
Creating personal tab
Creating personal tab
You can edit any tab online and save it as your Personal.

You can edit, replace or remove any tab part or add personal notes – all changes will be seen only by you.

Personal tabs can be accessed anytime from any device, even offline.
Learn more »
comments
print report bad tab
1 comment total.
0 reply
Megadethfan245 452 Jul 26, 2011 06:02 AM

Great job, thank you!

guest
You may want to rate the tab now too:
select rating
Wanna post a correction for this tab? Suggest correction